ISO-10303-21;
HEADER;
FILE_DESCRIPTION (( 'STEP AP203' ),
    '1' );
FILE_NAME ('55353.step',
    '2021-10-08T05:14:55',
    ( '' ),
    ( '' ),
    'SwSTEP 2.0',
    'SolidWorks 2019',
    '' );
FILE_SCHEMA (( 'CONFIG_CONTROL_DESIGN' ));
ENDSEC;

DATA;
#1 = FACE_OUTER_BOUND ( 'NONE', #174, .T. ) ;
#2 = APPROVAL_DATE_TIME ( #219, #183 ) ;
#3 = AXIS2_PLACEMENT_3D ( 'NONE', #32, #35, #172 ) ;
#4 = ORIENTED_EDGE ( 'NONE', *, *, #222, .F. ) ;
#5 = CARTESIAN_POINT ( 'NONE',  ( 3.290495070236415207E-14, -1.154150305930138373E-15, 9.424352447854374759 ) ) ;
#6 = CARTESIAN_POINT ( 'NONE',  ( 3.142333204958820020E-14, -1.102182119232617714E-15, 9.000000000000000000 ) ) ;
#7 = VERTEX_POINT ( 'NONE', #95 ) ;
#8 = PRODUCT_DEFINITION_FORMATION_WITH_SPECIFIED_SOURCE ( 'ANY', '', #123, .NOT_KNOWN. ) ;
#9 = PRODUCT_DEFINITION ( 'UNKNOWN', '', #8, #120 ) ;
#10 = DIRECTION ( 'NONE',  ( -4.275831445896958607E-31, -1.000000000000000000, -1.224646799147353207E-16 ) ) ;
#11 = DIRECTION ( 'NONE',  ( -3.491481338843133355E-15, 1.224646799147353207E-16, -1.000000000000000000 ) ) ;
#12 = LOCAL_TIME ( 7, 14, 55.00000000000000000, #150 ) ;
#13 = LOCAL_TIME ( 7, 14, 55.00000000000000000, #216 ) ;
#14 = VERTEX_POINT ( 'NONE', #42 ) ;
#15 = MECHANICAL_CONTEXT ( 'NONE', #17, 'mechanical' ) ;
#16 = ADVANCED_FACE ( 'NONE', ( #72, #141 ), #26, .T. ) ;
#17 = APPLICATION_CONTEXT ( 'configuration controlled 3d designs of mechanical parts and assemblies' ) ;
#18 = APPROVAL_PERSON_ORGANIZATION ( #27, #94, #65 ) ;
#19 = EDGE_LOOP ( 'NONE', ( #58 ) ) ;
#20 = CARTESIAN_POINT ( 'NONE',  ( 1.059436287483141837E-15, -3.716002270820317592E-17, 0.3034346126089206841 ) ) ;
#21 = DIRECTION ( 'NONE',  ( -4.275831445896958607E-31, -1.000000000000000000, -1.224646799147353207E-16 ) ) ;
#22 = DIRECTION ( 'NONE',  ( -3.491481338843133355E-15, 1.224646799147353207E-16, -1.000000000000000000 ) ) ;
#23 =( NAMED_UNIT ( * ) SI_UNIT ( $, .STERADIAN. ) SOLID_ANGLE_UNIT ( ) );
#24 = CARTESIAN_POINT ( 'NONE',  ( 3.290495070236415207E-14, -1.154150305930138373E-15, 9.424352447854374759 ) ) ;
#25 = CARTESIAN_POINT ( 'NONE',  ( 3.142333204958820020E-14, 3.786893451221168154E-33, 9.000000000000000000 ) ) ;
#26 = CONICAL_SURFACE ( 'NONE', #66, 0.5500000000000000444, 0.7853981633974510546 ) ;
#27 = PERSON_AND_ORGANIZATION ( #182, #140 ) ;
#28 = PERSON_AND_ORGANIZATION_ROLE ( 'classification_officer' ) ;
#29 = PERSON_AND_ORGANIZATION ( #182, #140 ) ;
#30 = PRODUCT_RELATED_PRODUCT_CATEGORY ( 'detail', '', ( #123 ) ) ;
#31 = PRODUCT_DEFINITION_SHAPE ( 'NONE', 'NONE',  #9 ) ;
#32 = CARTESIAN_POINT ( 'NONE',  ( 3.142333204958820020E-14, -1.102182119232617714E-15, 9.000000000000000000 ) ) ;
#33 = CIRCLE ( 'NONE', #191, 0.5049999999999991163 ) ;
#34 = LOCAL_TIME ( 7, 14, 55.00000000000000000, #70 ) ;
#35 = DIRECTION ( 'NONE',  ( -3.491481338843133355E-15, 1.224646799147353207E-16, -1.000000000000000000 ) ) ;
#36 = EDGE_LOOP ( 'NONE', ( #54 ) ) ;
#37 = EDGE_LOOP ( 'NONE', ( #195 ) ) ;
#38 = CC_DESIGN_APPROVAL ( #94, ( #159 ) ) ;
#39 = CARTESIAN_POINT ( 'NONE',  ( 1.047444401652940007E-13, -3.673940397442059178E-15, 30.00000000000000000 ) ) ;
#40 = FACE_OUTER_BOUND ( 'NONE', #106, .T. ) ;
#41 = ADVANCED_BREP_SHAPE_REPRESENTATION ( '55353', ( #102, #175, #82 ), #210 ) ;
#42 = CARTESIAN_POINT ( 'NONE',  ( 3.290495070236415207E-14, 0.7499999999999963363, 9.424352447854374759 ) ) ;
#43 = DIRECTION ( 'NONE',  ( -3.491481338843133355E-15, 1.224646799147353207E-16, -1.000000000000000000 ) ) ;
#44 = AXIS2_PLACEMENT_3D ( 'NONE', #24, #22, #113 ) ;
#45 = VERTEX_POINT ( 'NONE', #166 ) ;
#46 = ADVANCED_FACE ( 'NONE', ( #1 ), #155, .T. ) ;
#47 = AXIS2_PLACEMENT_3D ( 'NONE', #121, #138, #205 ) ;
#48 = EDGE_CURVE ( 'NONE', #7, #7, #56, .T. ) ;
#49 = APPROVAL_DATE_TIME ( #220, #152 ) ;
#50 = SHAPE_DEFINITION_REPRESENTATION ( #31, #41 ) ;
#51 = CC_DESIGN_DATE_AND_TIME_ASSIGNMENT ( #100, #68, ( #159 ) ) ;
#52 = DIRECTION ( 'NONE',  ( 0.0000000000000000000, -1.000000000000000000, 0.0000000000000000000 ) ) ;
#53 = DIRECTION ( 'NONE',  ( 1.000000000000000000, 0.0000000000000000000, 0.0000000000000000000 ) ) ;
#54 = ORIENTED_EDGE ( 'NONE', *, *, #111, .F. ) ;
#55 = EDGE_LOOP ( 'NONE', ( #69 ) ) ;
#56 = CIRCLE ( 'NONE', #221, 0.5049999999999988942 ) ;
#57 = AXIS2_PLACEMENT_3D ( 'NONE', #130, #215, #179 ) ;
#58 = ORIENTED_EDGE ( 'NONE', *, *, #79, .F. ) ;
#59 = CARTESIAN_POINT ( 'NONE',  ( 1.047444401652940007E-13, 4.124339402320052999E-33, 30.00000000000000000 ) ) ;
#60 = DIRECTION ( 'NONE',  ( 3.491481338843133355E-15, -1.224646799147353207E-16, 1.000000000000000000 ) ) ;
#61 = FACE_OUTER_BOUND ( 'NONE', #55, .T. ) ;
#62 = CC_DESIGN_APPROVAL ( #152, ( #8 ) ) ;
#63 = CYLINDRICAL_SURFACE ( 'NONE', #87, 0.5049999999999990052 ) ;
#64 = DIRECTION ( 'NONE',  ( 4.275831445896958607E-31, 1.000000000000000000, 1.224646799147353207E-16 ) ) ;
#65 = APPROVAL_ROLE ( '' ) ;
#66 = AXIS2_PLACEMENT_3D ( 'NONE', #39, #208, #223 ) ;
#67 = PERSON_AND_ORGANIZATION_ROLE ( 'creator' ) ;
#68 = DATE_TIME_ROLE ( 'classification_date' ) ;
#69 = ORIENTED_EDGE ( 'NONE', *, *, #48, .F. ) ;
#70 = COORDINATED_UNIVERSAL_TIME_OFFSET ( 1, 0, .AHEAD. ) ;
#71 = CC_DESIGN_PERSON_AND_ORGANIZATION_ASSIGNMENT ( #101, #84, ( #123 ) ) ;
#72 = FACE_OUTER_BOUND ( 'NONE', #36, .T. ) ;
#73 = DIRECTION ( 'NONE',  ( 3.491481338843133355E-15, -1.224646799147353207E-16, 1.000000000000000000 ) ) ;
#74 = ADVANCED_FACE ( 'NONE', ( #161, #192 ), #186, .T. ) ;
#75 = EDGE_LOOP ( 'NONE', ( #196 ) ) ;
#76 = AXIS2_PLACEMENT_3D ( 'NONE', #199, #198, #214 ) ;
#77 = CARTESIAN_POINT ( 'NONE',  ( 1.040461438975253740E-13, 0.7499999999999962252, 29.80000000000000071 ) ) ;
#78 = FACE_OUTER_BOUND ( 'NONE', #144, .T. ) ;
#79 = EDGE_CURVE ( 'NONE', #45, #45, #33, .T. ) ;
#80 = CLOSED_SHELL ( 'NONE', ( #168, #74, #158, #16, #135 ) ) ;
#81 = DIRECTION ( 'NONE',  ( 4.275831445896959482E-31, 1.000000000000000000, 1.224646799147353454E-16 ) ) ;
#82 = AXIS2_PLACEMENT_3D ( 'NONE', #190, #171, #53 ) ;
#83 = PERSON_AND_ORGANIZATION_ROLE ( 'creator' ) ;
#84 = PERSON_AND_ORGANIZATION_ROLE ( 'design_owner' ) ;
#85 = CALENDAR_DATE ( 2021, 8, 10 ) ;
#86 = EDGE_CURVE ( 'NONE', #109, #109, #217, .T. ) ;
#87 = AXIS2_PLACEMENT_3D ( 'NONE', #181, #11, #81 ) ;
#88 = ADVANCED_FACE ( 'NONE', ( #89 ), #164, .T. ) ;
#89 = FACE_OUTER_BOUND ( 'NONE', #124, .T. ) ;
#90 = DIRECTION ( 'NONE',  ( -3.491481338843133355E-15, 1.224646799147353207E-16, -1.000000000000000000 ) ) ;
#91 = ORIENTED_EDGE ( 'NONE', *, *, #129, .F. ) ;
#92 = DIRECTION ( 'NONE',  ( 0.0000000000000000000, 1.000000000000000000, 0.0000000000000000000 ) ) ;
#93 = VERTEX_POINT ( 'NONE', #77 ) ;
#94 = APPROVAL ( #98, 'UNSPECIFIED' ) ;
#95 = CARTESIAN_POINT ( 'NONE',  ( 1.059436287483142035E-15, 0.5049999999999988942, 0.3034346126089207396 ) ) ;
#96 = AXIS2_PLACEMENT_3D ( 'NONE', #59, #149, #64 ) ;
#97 = FACE_OUTER_BOUND ( 'NONE', #105, .T. ) ;
#98 = APPROVAL_STATUS ( 'not_yet_approved' ) ;
#99 = APPLICATION_PROTOCOL_DEFINITION ( 'international standard', 'config_control_design', 1994, #110 ) ;
#100 = DATE_AND_TIME ( #117, #34 ) ;
#101 = PERSON_AND_ORGANIZATION ( #182, #140 ) ;
#102 = MANIFOLD_SOLID_BREP ( 'Corps-Déplacer/Copier1[1]', #80 ) ;
#103 = EDGE_LOOP ( 'NONE', ( #4 ) ) ;
#104 = EDGE_LOOP ( 'NONE', ( #157 ) ) ;
#105 = EDGE_LOOP ( 'NONE', ( #108 ) ) ;
#106 = EDGE_LOOP ( 'NONE', ( #176 ) ) ;
#107 = AXIS2_PLACEMENT_3D ( 'NONE', #25, #178, #21 ) ;
#108 = ORIENTED_EDGE ( 'NONE', *, *, #111, .T. ) ;
#109 = VERTEX_POINT ( 'NONE', #147 ) ;
#110 = APPLICATION_CONTEXT ( 'configuration controlled 3d designs of mechanical parts and assemblies' ) ;
#111 = EDGE_CURVE ( 'NONE', #93, #93, #197, .T. ) ;
#112 = AXIS2_PLACEMENT_3D ( 'NONE', #128, #43, #92 ) ;
#113 = DIRECTION ( 'NONE',  ( 0.0000000000000000000, 1.000000000000000000, 0.0000000000000000000 ) ) ;
#114 = CARTESIAN_POINT ( 'NONE',  ( 3.142333204958820020E-14, 3.786893451221168154E-33, 9.000000000000000000 ) ) ;
#115 = CIRCLE ( 'NONE', #112, 0.5500000000000000444 ) ;
#116 = PERSON_AND_ORGANIZATION ( #182, #140 ) ;
#117 = CALENDAR_DATE ( 2021, 8, 10 ) ;
#118 = CC_DESIGN_PERSON_AND_ORGANIZATION_ASSIGNMENT ( #116, #67, ( #8 ) ) ;
#119 = APPROVAL_ROLE ( '' ) ;
#120 = DESIGN_CONTEXT ( 'detailed design', #110, 'design' ) ;
#121 = CARTESIAN_POINT ( 'NONE',  ( 1.059436287483141837E-15, -3.716002270820317592E-17, 0.3034346126089206841 ) ) ;
#122 = COORDINATED_UNIVERSAL_TIME_OFFSET ( 1, 0, .AHEAD. ) ;
#123 = PRODUCT ( '55353', '55353', '', ( #15 ) ) ;
#124 = EDGE_LOOP ( 'NONE', ( #156 ) ) ;
#125 = DIRECTION ( 'NONE',  ( 3.813722662152950816E-31, 1.000000000000000000, 1.073467497510402831E-16 ) ) ;
#126 = APPROVAL_PERSON_ORGANIZATION ( #201, #183, #119 ) ;
#127 = DIRECTION ( 'NONE',  ( 0.0000000000000000000, 1.000000000000000000, 0.0000000000000000000 ) ) ;
#128 = CARTESIAN_POINT ( 'NONE',  ( 1.047444401652940007E-13, -3.673940397442059178E-15, 30.00000000000000000 ) ) ;
#129 = EDGE_CURVE ( 'NONE', #211, #211, #115, .T. ) ;
#130 = CARTESIAN_POINT ( 'NONE',  ( 1.040461438975253740E-13, -3.649447461459112464E-15, 29.80000000000000071 ) ) ;
#131 = FACE_OUTER_BOUND ( 'NONE', #104, .T. ) ;
#132 = PERSON_AND_ORGANIZATION ( #182, #140 ) ;
#133 = LOCAL_TIME ( 7, 14, 55.00000000000000000, #122 ) ;
#134 = PERSON_AND_ORGANIZATION ( #182, #140 ) ;
#135 = ADVANCED_FACE ( 'NONE', ( #78 ), #184, .F. ) ;
#136 = PERSON_AND_ORGANIZATION_ROLE ( 'design_supplier' ) ;
#137 = UNCERTAINTY_MEASURE_WITH_UNIT (LENGTH_MEASURE( 1.000000000000000082E-05 ), #163, 'distance_accuracy_value', 'NONE');
#138 = DIRECTION ( 'NONE',  ( 3.491481338843133355E-15, -1.224646799147353207E-16, 1.000000000000000000 ) ) ;
#139 = DATE_TIME_ROLE ( 'creation_date' ) ;
#140 = ORGANIZATION ( 'UNSPECIFIED', 'UNSPECIFIED', '' ) ;
#141 = FACE_BOUND ( 'NONE', #37, .T. ) ;
#142 = CC_DESIGN_DATE_AND_TIME_ASSIGNMENT ( #207, #139, ( #9 ) ) ;
#143 = DIRECTION ( 'NONE',  ( -3.491481338843133355E-15, 1.224646799147353207E-16, -1.000000000000000000 ) ) ;
#144 = EDGE_LOOP ( 'NONE', ( #91 ) ) ;
#145 = CC_DESIGN_APPROVAL ( #183, ( #9 ) ) ;
#146 = CARTESIAN_POINT ( 'NONE',  ( 1.047444401652940007E-13, 0.5499999999999963807, 30.00000000000000000 ) ) ;
#147 = CARTESIAN_POINT ( 'NONE',  ( 3.142333204958820020E-14, 0.5049999999999981171, 9.000000000000000000 ) ) ;
#148 = CLOSED_SHELL ( 'NONE', ( #46, #206, #88 ) ) ;
#149 = DIRECTION ( 'NONE',  ( -3.491481338843133355E-15, 1.224646799147353207E-16, -1.000000000000000000 ) ) ;
#150 = COORDINATED_UNIVERSAL_TIME_OFFSET ( 1, 0, .AHEAD. ) ;
#151 = APPROVAL_STATUS ( 'not_yet_approved' ) ;
#152 = APPROVAL ( #151, 'UNSPECIFIED' ) ;
#153 = APPROVAL_ROLE ( '' ) ;
#154 = CALENDAR_DATE ( 2021, 8, 10 ) ;
#155 = CONICAL_SURFACE ( 'NONE', #47, 0.5049999999999988942, 1.029744258676649649 ) ;
#156 = ORIENTED_EDGE ( 'NONE', *, *, #86, .F. ) ;
#157 = ORIENTED_EDGE ( 'NONE', *, *, #86, .T. ) ;
#158 = ADVANCED_FACE ( 'NONE', ( #213, #97 ), #200, .T. ) ;
#159 = SECURITY_CLASSIFICATION ( '', '', #173 ) ;
#160 = ORIENTED_EDGE ( 'NONE', *, *, #48, .T. ) ;
#161 = FACE_BOUND ( 'NONE', #19, .T. ) ;
#162 = PLANE ( 'NONE',  #187 ) ;
#163 =( LENGTH_UNIT ( ) NAMED_UNIT ( * ) SI_UNIT ( .MILLI., .METRE. ) );
#164 = PLANE ( 'NONE',  #107 ) ;
#165 = CC_DESIGN_SECURITY_CLASSIFICATION ( #159, ( #8 ) ) ;
#166 = CARTESIAN_POINT ( 'NONE',  ( 3.142333204958820020E-14, 0.5049999999999981171, 9.000000000000000000 ) ) ;
#167 = CALENDAR_DATE ( 2021, 8, 10 ) ;
#168 = ADVANCED_FACE ( 'NONE', ( #40 ), #162, .F. ) ;
#169 = APPROVAL_STATUS ( 'not_yet_approved' ) ;
#170 = APPROVAL_PERSON_ORGANIZATION ( #132, #152, #153 ) ;
#171 = DIRECTION ( 'NONE',  ( 0.0000000000000000000, 0.0000000000000000000, 1.000000000000000000 ) ) ;
#172 = DIRECTION ( 'NONE',  ( 0.0000000000000000000, 1.000000000000000000, 0.0000000000000000000 ) ) ;
#173 = SECURITY_CLASSIFICATION_LEVEL ( 'unclassified' ) ;
#174 = EDGE_LOOP ( 'NONE', ( #160 ) ) ;
#175 = MANIFOLD_SOLID_BREP ( 'Corps-Déplacer/Copier1[2]', #148 ) ;
#176 = ORIENTED_EDGE ( 'NONE', *, *, #79, .T. ) ;
#177 = CC_DESIGN_PERSON_AND_ORGANIZATION_ASSIGNMENT ( #202, #28, ( #159 ) ) ;
#178 = DIRECTION ( 'NONE',  ( 3.491481338843133355E-15, -1.224646799147353207E-16, 1.000000000000000000 ) ) ;
#179 = DIRECTION ( 'NONE',  ( 0.0000000000000000000, 1.000000000000000000, 0.0000000000000000000 ) ) ;
#180 = LOCAL_TIME ( 7, 14, 55.00000000000000000, #218 ) ;
#181 = CARTESIAN_POINT ( 'NONE',  ( 0.0000000000000000000, 0.0000000000000000000, 0.0000000000000000000 ) ) ;
#182 = PERSON ( 'UNSPECIFIED', 'UNSPECIFIED', 'UNSPECIFIED', ('UNSPECIFIED'), ('UNSPECIFIED'), ('UNSPECIFIED') ) ;
#183 = APPROVAL ( #169, 'UNSPECIFIED' ) ;
#184 = PLANE ( 'NONE',  #96 ) ;
#185 = APPLICATION_PROTOCOL_DEFINITION ( 'international standard', 'config_control_design', 1994, #17 ) ;
#186 = CONICAL_SURFACE ( 'NONE', #209, 0.7499999999999975575, 0.5235987755982947078 ) ;
#187 = AXIS2_PLACEMENT_3D ( 'NONE', #114, #60, #10 ) ;
#188 = CALENDAR_DATE ( 2021, 8, 10 ) ;
#189 = CC_DESIGN_PERSON_AND_ORGANIZATION_ASSIGNMENT ( #134, #136, ( #8 ) ) ;
#190 = CARTESIAN_POINT ( 'NONE',  ( 0.0000000000000000000, 0.0000000000000000000, 0.0000000000000000000 ) ) ;
#191 = AXIS2_PLACEMENT_3D ( 'NONE', #6, #143, #127 ) ;
#192 = FACE_OUTER_BOUND ( 'NONE', #75, .T. ) ;
#193 = CC_DESIGN_PERSON_AND_ORGANIZATION_ASSIGNMENT ( #29, #83, ( #9 ) ) ;
#194 = APPROVAL_DATE_TIME ( #203, #94 ) ;
#195 = ORIENTED_EDGE ( 'NONE', *, *, #129, .T. ) ;
#196 = ORIENTED_EDGE ( 'NONE', *, *, #222, .T. ) ;
#197 = CIRCLE ( 'NONE', #57, 0.7499999999999998890 ) ;
#198 = DIRECTION ( 'NONE',  ( -3.491481338843133355E-15, 1.224646799147353207E-16, -1.000000000000000000 ) ) ;
#199 = CARTESIAN_POINT ( 'NONE',  ( 0.0000000000000000000, 0.0000000000000000000, 0.0000000000000000000 ) ) ;
#200 = CYLINDRICAL_SURFACE ( 'NONE', #76, 0.7499999999999986677 ) ;
#201 = PERSON_AND_ORGANIZATION ( #182, #140 ) ;
#202 = PERSON_AND_ORGANIZATION ( #182, #140 ) ;
#203 = DATE_AND_TIME ( #167, #133 ) ;
#204 = CIRCLE ( 'NONE', #44, 0.7499999999999975575 ) ;
#205 = DIRECTION ( 'NONE',  ( -3.813722662152950816E-31, -1.000000000000000000, -1.073467497510402831E-16 ) ) ;
#206 = ADVANCED_FACE ( 'NONE', ( #61, #131 ), #63, .T. ) ;
#207 = DATE_AND_TIME ( #154, #12 ) ;
#208 = DIRECTION ( 'NONE',  ( -3.491481338843133355E-15, 1.224646799147353207E-16, -1.000000000000000000 ) ) ;
#209 = AXIS2_PLACEMENT_3D ( 'NONE', #5, #73, #52 ) ;
#210 =( GEOMETRIC_REPRESENTATION_CONTEXT ( 3 ) GLOBAL_UNCERTAINTY_ASSIGNED_CONTEXT ( ( #137 ) ) GLOBAL_UNIT_ASSIGNED_CONTEXT ( ( #163, #212, #23 ) ) REPRESENTATION_CONTEXT ( 'NONE', 'WORKASPACE' ) );
#211 = VERTEX_POINT ( 'NONE', #146 ) ;
#212 =( NAMED_UNIT ( * ) PLANE_ANGLE_UNIT ( ) SI_UNIT ( $, .RADIAN. ) );
#213 = FACE_OUTER_BOUND ( 'NONE', #103, .T. ) ;
#214 = DIRECTION ( 'NONE',  ( 4.275831445896959482E-31, 1.000000000000000000, 1.224646799147353207E-16 ) ) ;
#215 = DIRECTION ( 'NONE',  ( -3.491481338843133355E-15, 1.224646799147353207E-16, -1.000000000000000000 ) ) ;
#216 = COORDINATED_UNIVERSAL_TIME_OFFSET ( 1, 0, .AHEAD. ) ;
#217 = CIRCLE ( 'NONE', #3, 0.5049999999999991163 ) ;
#218 = COORDINATED_UNIVERSAL_TIME_OFFSET ( 1, 0, .AHEAD. ) ;
#219 = DATE_AND_TIME ( #85, #13 ) ;
#220 = DATE_AND_TIME ( #188, #180 ) ;
#221 = AXIS2_PLACEMENT_3D ( 'NONE', #20, #90, #125 ) ;
#222 = EDGE_CURVE ( 'NONE', #14, #14, #204, .T. ) ;
#223 = DIRECTION ( 'NONE',  ( 0.0000000000000000000, 1.000000000000000000, 0.0000000000000000000 ) ) ;
ENDSEC;
END-ISO-10303-21;
