ISO-10303-21;
HEADER;
FILE_DESCRIPTION (( 'STEP AP203' ),
    '1' );
FILE_NAME ('55352.step',
    '2021-10-08T05:14:54',
    ( '' ),
    ( '' ),
    'SwSTEP 2.0',
    'SolidWorks 2019',
    '' );
FILE_SCHEMA (( 'CONFIG_CONTROL_DESIGN' ));
ENDSEC;

DATA;
#1 = CALENDAR_DATE ( 2021, 8, 10 ) ;
#2 = EDGE_CURVE ( 'NONE', #203, #203, #93, .T. ) ;
#3 =( GEOMETRIC_REPRESENTATION_CONTEXT ( 3 ) GLOBAL_UNCERTAINTY_ASSIGNED_CONTEXT ( ( #138 ) ) GLOBAL_UNIT_ASSIGNED_CONTEXT ( ( #155, #19, #106 ) ) REPRESENTATION_CONTEXT ( 'NONE', 'WORKASPACE' ) );
#4 = PERSON_AND_ORGANIZATION ( #211, #158 ) ;
#5 = DATE_AND_TIME ( #174, #175 ) ;
#6 = ORIENTED_EDGE ( 'NONE', *, *, #48, .T. ) ;
#7 = EDGE_LOOP ( 'NONE', ( #24 ) ) ;
#8 = CARTESIAN_POINT ( 'NONE',  ( 3.293518781772693974E-14, 0.7499999999999963363, 9.433012701892222296 ) ) ;
#9 = DIRECTION ( 'NONE',  ( 3.491481338843133355E-15, -1.224646799147353207E-16, 1.000000000000000000 ) ) ;
#10 = CARTESIAN_POINT ( 'NONE',  ( 3.142333204958820651E-14, 0.4999999999999987232, 9.000000000000001776 ) ) ;
#11 = ADVANCED_FACE ( 'NONE', ( #58, #27 ), #166, .T. ) ;
#12 = DIRECTION ( 'NONE',  ( -3.851859888774490974E-31, -1.000000000000000000, -1.084202172485509857E-16 ) ) ;
#13 = CARTESIAN_POINT ( 'NONE',  ( 3.142333204958820651E-14, -2.086929557694220523E-31, 9.000000000000001776 ) ) ;
#14 = SECURITY_CLASSIFICATION ( '', '', #33 ) ;
#15 = MECHANICAL_CONTEXT ( 'NONE', #210, 'mechanical' ) ;
#16 = COORDINATED_UNIVERSAL_TIME_OFFSET ( 1, 0, .AHEAD. ) ;
#17 = DATE_AND_TIME ( #172, #161 ) ;
#18 = AXIS2_PLACEMENT_3D ( 'NONE', #70, #31, #183 ) ;
#19 =( NAMED_UNIT ( * ) PLANE_ANGLE_UNIT ( ) SI_UNIT ( $, .RADIAN. ) );
#20 = CC_DESIGN_PERSON_AND_ORGANIZATION_ASSIGNMENT ( #4, #189, ( #21 ) ) ;
#21 = PRODUCT ( '55352', '55352', '', ( #15 ) ) ;
#22 = AXIS2_PLACEMENT_3D ( 'NONE', #29, #140, #30 ) ;
#23 = EDGE_CURVE ( 'NONE', #222, #222, #79, .T. ) ;
#24 = ORIENTED_EDGE ( 'NONE', *, *, #62, .T. ) ;
#25 = AXIS2_PLACEMENT_3D ( 'NONE', #43, #196, #114 ) ;
#26 = LOCAL_TIME ( 7, 14, 54.00000000000000000, #16 ) ;
#27 = FACE_OUTER_BOUND ( 'NONE', #96, .T. ) ;
#28 = APPLICATION_CONTEXT ( 'configuration controlled 3d designs of mechanical parts and assemblies' ) ;
#29 = CARTESIAN_POINT ( 'NONE',  ( 0.0000000000000000000, 0.0000000000000000000, 0.0000000000000000000 ) ) ;
#30 = DIRECTION ( 'NONE',  ( 4.275831445896959482E-31, 1.000000000000000000, 1.224646799147353207E-16 ) ) ;
#31 = DIRECTION ( 'NONE',  ( -3.491481338843133355E-15, 1.224646799147353207E-16, -1.000000000000000000 ) ) ;
#32 = CARTESIAN_POINT ( 'NONE',  ( 1.048946819290236596E-15, 0.4999999999999975020, 0.3004303095137820234 ) ) ;
#33 = SECURITY_CLASSIFICATION_LEVEL ( 'unclassified' ) ;
#34 = CLOSED_SHELL ( 'NONE', ( #75, #11, #67 ) ) ;
#35 = ADVANCED_FACE ( 'NONE', ( #45 ), #117, .F. ) ;
#36 = PERSON_AND_ORGANIZATION_ROLE ( 'creator' ) ;
#37 = DATE_TIME_ROLE ( 'classification_date' ) ;
#38 = CC_DESIGN_PERSON_AND_ORGANIZATION_ASSIGNMENT ( #190, #146, ( #152 ) ) ;
#39 = PERSON_AND_ORGANIZATION ( #211, #158 ) ;
#40 = PERSON_AND_ORGANIZATION ( #211, #158 ) ;
#41 = MANIFOLD_SOLID_BREP ( 'Corps-Déplacer/Copier1[2]', #34 ) ;
#42 = AXIS2_PLACEMENT_3D ( 'NONE', #195, #44, #181 ) ;
#43 = CARTESIAN_POINT ( 'NONE',  ( 3.142333204958820651E-14, -1.102182119232617911E-15, 9.000000000000001776 ) ) ;
#44 = DIRECTION ( 'NONE',  ( -3.491481338843133355E-15, 1.224646799147353207E-16, -1.000000000000000000 ) ) ;
#45 = FACE_OUTER_BOUND ( 'NONE', #177, .T. ) ;
#46 = DIRECTION ( 'NONE',  ( -3.491481338843133355E-15, 1.224646799147353207E-16, -1.000000000000000000 ) ) ;
#47 = DIRECTION ( 'NONE',  ( -3.491481338843133355E-15, 1.224646799147353207E-16, -1.000000000000000000 ) ) ;
#48 = EDGE_CURVE ( 'NONE', #122, #122, #60, .T. ) ;
#49 = DIRECTION ( 'NONE',  ( -3.491481338843133355E-15, 1.224646799147353207E-16, -1.000000000000000000 ) ) ;
#50 = CC_DESIGN_SECURITY_CLASSIFICATION ( #14, ( #152 ) ) ;
#51 = CARTESIAN_POINT ( 'NONE',  ( 1.047444401652940007E-13, 0.5499999999999963807, 30.00000000000000000 ) ) ;
#52 = DIRECTION ( 'NONE',  ( 0.0000000000000000000, -1.000000000000000000, 0.0000000000000000000 ) ) ;
#53 = PERSON_AND_ORGANIZATION ( #211, #158 ) ;
#54 = ADVANCED_FACE ( 'NONE', ( #80, #154 ), #218, .T. ) ;
#55 = PERSON_AND_ORGANIZATION_ROLE ( 'creator' ) ;
#56 = APPROVAL_ROLE ( '' ) ;
#57 = APPROVAL_DATE_TIME ( #159, #118 ) ;
#58 = FACE_OUTER_BOUND ( 'NONE', #163, .T. ) ;
#59 = APPROVAL ( #173, 'UNSPECIFIED' ) ;
#60 = CIRCLE ( 'NONE', #64, 0.4999999999999975020 ) ;
#61 = EDGE_LOOP ( 'NONE', ( #63 ) ) ;
#62 = EDGE_CURVE ( 'NONE', #101, #101, #206, .T. ) ;
#63 = ORIENTED_EDGE ( 'NONE', *, *, #23, .T. ) ;
#64 = AXIS2_PLACEMENT_3D ( 'NONE', #153, #217, #137 ) ;
#65 = APPROVAL_PERSON_ORGANIZATION ( #145, #59, #56 ) ;
#66 = DIRECTION ( 'NONE',  ( 0.0000000000000000000, 1.000000000000000000, 0.0000000000000000000 ) ) ;
#67 = ADVANCED_FACE ( 'NONE', ( #97 ), #170, .T. ) ;
#68 = DIRECTION ( 'NONE',  ( 3.491481338843133355E-15, -1.224646799147353207E-16, 1.000000000000000000 ) ) ;
#69 = CARTESIAN_POINT ( 'NONE',  ( 3.142333204958820651E-14, 0.4999999999999987232, 9.000000000000001776 ) ) ;
#70 = CARTESIAN_POINT ( 'NONE',  ( 1.047444401652940007E-13, -3.673940397442059178E-15, 30.00000000000000000 ) ) ;
#71 = PERSON_AND_ORGANIZATION ( #211, #158 ) ;
#72 = DIRECTION ( 'NONE',  ( 0.0000000000000000000, 0.0000000000000000000, 1.000000000000000000 ) ) ;
#73 = COORDINATED_UNIVERSAL_TIME_OFFSET ( 1, 0, .AHEAD. ) ;
#74 = ORIENTED_EDGE ( 'NONE', *, *, #62, .F. ) ;
#75 = ADVANCED_FACE ( 'NONE', ( #81 ), #90, .T. ) ;
#76 = CIRCLE ( 'NONE', #187, 0.4999999999999997780 ) ;
#77 = DIRECTION ( 'NONE',  ( -3.491481338843133355E-15, 1.224646799147353207E-16, -1.000000000000000000 ) ) ;
#78 = FACE_OUTER_BOUND ( 'NONE', #61, .T. ) ;
#79 = CIRCLE ( 'NONE', #25, 0.4999999999999997780 ) ;
#80 = FACE_BOUND ( 'NONE', #91, .T. ) ;
#81 = FACE_OUTER_BOUND ( 'NONE', #216, .T. ) ;
#82 = DESIGN_CONTEXT ( 'detailed design', #28, 'design' ) ;
#83 = CARTESIAN_POINT ( 'NONE',  ( 3.293518781772693974E-14, -1.155210881168863614E-15, 9.433012701892222296 ) ) ;
#84 = DIRECTION ( 'NONE',  ( -4.275831445896958607E-31, -1.000000000000000000, -1.224646799147353207E-16 ) ) ;
#85 = DATE_TIME_ROLE ( 'creation_date' ) ;
#86 = PERSON_AND_ORGANIZATION ( #211, #158 ) ;
#87 = APPROVAL_STATUS ( 'not_yet_approved' ) ;
#88 = CC_DESIGN_PERSON_AND_ORGANIZATION_ASSIGNMENT ( #53, #36, ( #202 ) ) ;
#89 = CLOSED_SHELL ( 'NONE', ( #144, #54, #102, #193, #35 ) ) ;
#90 = CONICAL_SURFACE ( 'NONE', #219, 0.4999999999999975020, 1.029744258676649649 ) ;
#91 = EDGE_LOOP ( 'NONE', ( #164 ) ) ;
#92 = ORIENTED_EDGE ( 'NONE', *, *, #2, .F. ) ;
#93 = CIRCLE ( 'NONE', #42, 0.7499999999999975575 ) ;
#94 = AXIS2_PLACEMENT_3D ( 'NONE', #160, #77, #134 ) ;
#95 = CC_DESIGN_APPROVAL ( #165, ( #202 ) ) ;
#96 = EDGE_LOOP ( 'NONE', ( #132 ) ) ;
#97 = FACE_OUTER_BOUND ( 'NONE', #215, .T. ) ;
#98 = CARTESIAN_POINT ( 'NONE',  ( 1.048946819290236399E-15, -3.679210169129017074E-17, 0.3004303095137819679 ) ) ;
#99 = CONICAL_SURFACE ( 'NONE', #178, 0.5500000000000000444, 0.7853981633974510546 ) ;
#100 = FACE_BOUND ( 'NONE', #192, .T. ) ;
#101 = VERTEX_POINT ( 'NONE', #151 ) ;
#102 = ADVANCED_FACE ( 'NONE', ( #223, #184 ), #199, .T. ) ;
#103 = DIRECTION ( 'NONE',  ( 4.275831445896958607E-31, 1.000000000000000000, 1.224646799147353207E-16 ) ) ;
#104 = COORDINATED_UNIVERSAL_TIME_OFFSET ( 1, 0, .AHEAD. ) ;
#105 = AXIS2_PLACEMENT_3D ( 'NONE', #121, #9, #84 ) ;
#106 =( NAMED_UNIT ( * ) SI_UNIT ( $, .STERADIAN. ) SOLID_ANGLE_UNIT ( ) );
#107 = CC_DESIGN_PERSON_AND_ORGANIZATION_ASSIGNMENT ( #39, #108, ( #14 ) ) ;
#108 = PERSON_AND_ORGANIZATION_ROLE ( 'classification_officer' ) ;
#109 = LOCAL_TIME ( 7, 14, 54.00000000000000000, #127 ) ;
#110 = DIRECTION ( 'NONE',  ( 1.000000000000000000, 0.0000000000000000000, 0.0000000000000000000 ) ) ;
#111 = EDGE_LOOP ( 'NONE', ( #92 ) ) ;
#112 = AXIS2_PLACEMENT_3D ( 'NONE', #200, #46, #66 ) ;
#113 = CC_DESIGN_APPROVAL ( #118, ( #152 ) ) ;
#114 = DIRECTION ( 'NONE',  ( 0.0000000000000000000, 1.000000000000000000, 0.0000000000000000000 ) ) ;
#115 = EDGE_CURVE ( 'NONE', #139, #139, #76, .T. ) ;
#116 = CARTESIAN_POINT ( 'NONE',  ( 3.142333204958820651E-14, -1.102182119232617911E-15, 9.000000000000001776 ) ) ;
#117 = PLANE ( 'NONE',  #197 ) ;
#118 = APPROVAL ( #87, 'UNSPECIFIED' ) ;
#119 = CIRCLE ( 'NONE', #18, 0.5500000000000000444 ) ;
#120 = DIRECTION ( 'NONE',  ( 0.0000000000000000000, 1.000000000000000000, 0.0000000000000000000 ) ) ;
#121 = CARTESIAN_POINT ( 'NONE',  ( 3.142333204958820651E-14, -2.086929557694220523E-31, 9.000000000000001776 ) ) ;
#122 = VERTEX_POINT ( 'NONE', #32 ) ;
#123 = AXIS2_PLACEMENT_3D ( 'NONE', #83, #220, #52 ) ;
#124 = AXIS2_PLACEMENT_3D ( 'NONE', #13, #68, #136 ) ;
#125 = APPROVAL_ROLE ( '' ) ;
#126 = APPLICATION_PROTOCOL_DEFINITION ( 'international standard', 'config_control_design', 1994, #28 ) ;
#127 = COORDINATED_UNIVERSAL_TIME_OFFSET ( 1, 0, .AHEAD. ) ;
#128 = LOCAL_TIME ( 7, 14, 54.00000000000000000, #143 ) ;
#129 = ORIENTED_EDGE ( 'NONE', *, *, #115, .F. ) ;
#130 = ORIENTED_EDGE ( 'NONE', *, *, #198, .F. ) ;
#131 = APPROVAL_PERSON_ORGANIZATION ( #86, #118, #125 ) ;
#132 = ORIENTED_EDGE ( 'NONE', *, *, #115, .T. ) ;
#133 = PRODUCT_DEFINITION_SHAPE ( 'NONE', 'NONE',  #202 ) ;
#134 = DIRECTION ( 'NONE',  ( 4.275831445896958607E-31, 1.000000000000000000, 1.224646799147353207E-16 ) ) ;
#135 = DIRECTION ( 'NONE',  ( -3.491481338843133355E-15, 1.224646799147353207E-16, -1.000000000000000000 ) ) ;
#136 = DIRECTION ( 'NONE',  ( -4.275831445896958607E-31, -1.000000000000000000, -1.224646799147353207E-16 ) ) ;
#137 = DIRECTION ( 'NONE',  ( 3.851859888774490974E-31, 1.000000000000000000, 1.084202172485509857E-16 ) ) ;
#138 = UNCERTAINTY_MEASURE_WITH_UNIT (LENGTH_MEASURE( 1.000000000000000082E-05 ), #155, 'distance_accuracy_value', 'NONE');
#139 = VERTEX_POINT ( 'NONE', #69 ) ;
#140 = DIRECTION ( 'NONE',  ( -3.491481338843133355E-15, 1.224646799147353207E-16, -1.000000000000000000 ) ) ;
#141 = CARTESIAN_POINT ( 'NONE',  ( 0.0000000000000000000, 0.0000000000000000000, 0.0000000000000000000 ) ) ;
#142 = APPROVAL_DATE_TIME ( #171, #59 ) ;
#143 = COORDINATED_UNIVERSAL_TIME_OFFSET ( 1, 0, .AHEAD. ) ;
#144 = ADVANCED_FACE ( 'NONE', ( #78 ), #168, .F. ) ;
#145 = PERSON_AND_ORGANIZATION ( #211, #158 ) ;
#146 = PERSON_AND_ORGANIZATION_ROLE ( 'design_supplier' ) ;
#147 = EDGE_LOOP ( 'NONE', ( #214 ) ) ;
#148 = EDGE_LOOP ( 'NONE', ( #74 ) ) ;
#149 = CC_DESIGN_PERSON_AND_ORGANIZATION_ASSIGNMENT ( #71, #55, ( #152 ) ) ;
#150 = CC_DESIGN_APPROVAL ( #59, ( #14 ) ) ;
#151 = CARTESIAN_POINT ( 'NONE',  ( 1.040461438975253740E-13, 0.7499999999999962252, 29.80000000000000071 ) ) ;
#152 = PRODUCT_DEFINITION_FORMATION_WITH_SPECIFIED_SOURCE ( 'ANY', '', #21, .NOT_KNOWN. ) ;
#153 = CARTESIAN_POINT ( 'NONE',  ( 1.048946819290236399E-15, -3.679210169129017074E-17, 0.3004303095137819679 ) ) ;
#154 = FACE_OUTER_BOUND ( 'NONE', #147, .T. ) ;
#155 =( LENGTH_UNIT ( ) NAMED_UNIT ( * ) SI_UNIT ( .MILLI., .METRE. ) );
#156 = CARTESIAN_POINT ( 'NONE',  ( 1.047444401652940007E-13, 4.124339402320052999E-33, 30.00000000000000000 ) ) ;
#157 = APPROVAL_DATE_TIME ( #209, #165 ) ;
#158 = ORGANIZATION ( 'UNSPECIFIED', 'UNSPECIFIED', '' ) ;
#159 = DATE_AND_TIME ( #1, #26 ) ;
#160 = CARTESIAN_POINT ( 'NONE',  ( 0.0000000000000000000, 0.0000000000000000000, 0.0000000000000000000 ) ) ;
#161 = LOCAL_TIME ( 7, 14, 54.00000000000000000, #73 ) ;
#162 = PRODUCT_RELATED_PRODUCT_CATEGORY ( 'detail', '', ( #21 ) ) ;
#163 = EDGE_LOOP ( 'NONE', ( #180 ) ) ;
#164 = ORIENTED_EDGE ( 'NONE', *, *, #23, .F. ) ;
#165 = APPROVAL ( #212, 'UNSPECIFIED' ) ;
#166 = CYLINDRICAL_SURFACE ( 'NONE', #94, 0.4999999999999987232 ) ;
#167 = CARTESIAN_POINT ( 'NONE',  ( 1.047444401652940007E-13, -3.673940397442059178E-15, 30.00000000000000000 ) ) ;
#168 = PLANE ( 'NONE',  #105 ) ;
#169 = ADVANCED_BREP_SHAPE_REPRESENTATION ( '55352', ( #185, #41, #213 ), #3 ) ;
#170 = PLANE ( 'NONE',  #124 ) ;
#171 = DATE_AND_TIME ( #191, #109 ) ;
#172 = CALENDAR_DATE ( 2021, 8, 10 ) ;
#173 = APPROVAL_STATUS ( 'not_yet_approved' ) ;
#174 = CALENDAR_DATE ( 2021, 8, 10 ) ;
#175 = LOCAL_TIME ( 7, 14, 54.00000000000000000, #104 ) ;
#176 = CALENDAR_DATE ( 2021, 8, 10 ) ;
#177 = EDGE_LOOP ( 'NONE', ( #130 ) ) ;
#178 = AXIS2_PLACEMENT_3D ( 'NONE', #167, #47, #120 ) ;
#179 = CC_DESIGN_DATE_AND_TIME_ASSIGNMENT ( #5, #37, ( #14 ) ) ;
#180 = ORIENTED_EDGE ( 'NONE', *, *, #48, .F. ) ;
#181 = DIRECTION ( 'NONE',  ( 0.0000000000000000000, 1.000000000000000000, 0.0000000000000000000 ) ) ;
#182 = DIRECTION ( 'NONE',  ( 0.0000000000000000000, 1.000000000000000000, 0.0000000000000000000 ) ) ;
#183 = DIRECTION ( 'NONE',  ( 0.0000000000000000000, 1.000000000000000000, 0.0000000000000000000 ) ) ;
#184 = FACE_OUTER_BOUND ( 'NONE', #7, .T. ) ;
#185 = MANIFOLD_SOLID_BREP ( 'Corps-Déplacer/Copier1[1]', #89 ) ;
#186 = VERTEX_POINT ( 'NONE', #51 ) ;
#187 = AXIS2_PLACEMENT_3D ( 'NONE', #116, #49, #182 ) ;
#188 = APPLICATION_PROTOCOL_DEFINITION ( 'international standard', 'config_control_design', 1994, #210 ) ;
#189 = PERSON_AND_ORGANIZATION_ROLE ( 'design_owner' ) ;
#190 = PERSON_AND_ORGANIZATION ( #211, #158 ) ;
#191 = CALENDAR_DATE ( 2021, 8, 10 ) ;
#192 = EDGE_LOOP ( 'NONE', ( #194 ) ) ;
#193 = ADVANCED_FACE ( 'NONE', ( #204, #100 ), #99, .T. ) ;
#194 = ORIENTED_EDGE ( 'NONE', *, *, #198, .T. ) ;
#195 = CARTESIAN_POINT ( 'NONE',  ( 3.293518781772693974E-14, -1.155210881168863614E-15, 9.433012701892222296 ) ) ;
#196 = DIRECTION ( 'NONE',  ( -3.491481338843133355E-15, 1.224646799147353207E-16, -1.000000000000000000 ) ) ;
#197 = AXIS2_PLACEMENT_3D ( 'NONE', #156, #135, #103 ) ;
#198 = EDGE_CURVE ( 'NONE', #186, #186, #119, .T. ) ;
#199 = CYLINDRICAL_SURFACE ( 'NONE', #22, 0.7499999999999986677 ) ;
#200 = CARTESIAN_POINT ( 'NONE',  ( 1.040461438975253740E-13, -3.649447461459112464E-15, 29.80000000000000071 ) ) ;
#201 = APPROVAL_PERSON_ORGANIZATION ( #40, #165, #205 ) ;
#202 = PRODUCT_DEFINITION ( 'UNKNOWN', '', #152, #82 ) ;
#203 = VERTEX_POINT ( 'NONE', #8 ) ;
#204 = FACE_OUTER_BOUND ( 'NONE', #148, .T. ) ;
#205 = APPROVAL_ROLE ( '' ) ;
#206 = CIRCLE ( 'NONE', #112, 0.7499999999999998890 ) ;
#207 = SHAPE_DEFINITION_REPRESENTATION ( #133, #169 ) ;
#208 = CC_DESIGN_DATE_AND_TIME_ASSIGNMENT ( #17, #85, ( #202 ) ) ;
#209 = DATE_AND_TIME ( #176, #128 ) ;
#210 = APPLICATION_CONTEXT ( 'configuration controlled 3d designs of mechanical parts and assemblies' ) ;
#211 = PERSON ( 'UNSPECIFIED', 'UNSPECIFIED', 'UNSPECIFIED', ('UNSPECIFIED'), ('UNSPECIFIED'), ('UNSPECIFIED') ) ;
#212 = APPROVAL_STATUS ( 'not_yet_approved' ) ;
#213 = AXIS2_PLACEMENT_3D ( 'NONE', #141, #72, #110 ) ;
#214 = ORIENTED_EDGE ( 'NONE', *, *, #2, .T. ) ;
#215 = EDGE_LOOP ( 'NONE', ( #129 ) ) ;
#216 = EDGE_LOOP ( 'NONE', ( #6 ) ) ;
#217 = DIRECTION ( 'NONE',  ( -3.491481338843133355E-15, 1.224646799147353207E-16, -1.000000000000000000 ) ) ;
#218 = CONICAL_SURFACE ( 'NONE', #123, 0.7499999999999975575, 0.5235987755982928205 ) ;
#219 = AXIS2_PLACEMENT_3D ( 'NONE', #98, #221, #12 ) ;
#220 = DIRECTION ( 'NONE',  ( 3.491481338843133355E-15, -1.224646799147353207E-16, 1.000000000000000000 ) ) ;
#221 = DIRECTION ( 'NONE',  ( 3.491481338843133355E-15, -1.224646799147353207E-16, 1.000000000000000000 ) ) ;
#222 = VERTEX_POINT ( 'NONE', #10 ) ;
#223 = FACE_OUTER_BOUND ( 'NONE', #111, .T. ) ;
ENDSEC;
END-ISO-10303-21;
