ISO-10303-21;
HEADER;
FILE_DESCRIPTION (( 'STEP AP203' ),
    '1' );
FILE_NAME ('55351.step',
    '2021-10-08T05:14:54',
    ( '' ),
    ( '' ),
    'SwSTEP 2.0',
    'SolidWorks 2019',
    '' );
FILE_SCHEMA (( 'CONFIG_CONTROL_DESIGN' ));
ENDSEC;

DATA;
#1 = ORIENTED_EDGE ( 'NONE', *, *, #220, .F. ) ;
#2 = AXIS2_PLACEMENT_3D ( 'NONE', #89, #214, #102 ) ;
#3 = ADVANCED_FACE ( 'NONE', ( #153, #188 ), #38, .T. ) ;
#4 = CC_DESIGN_APPROVAL ( #156, ( #103 ) ) ;
#5 = FACE_OUTER_BOUND ( 'NONE', #192, .T. ) ;
#6 = PERSON_AND_ORGANIZATION ( #91, #139 ) ;
#7 = DIRECTION ( 'NONE',  ( 3.491481338843133355E-15, -1.224646799147353207E-16, 1.000000000000000000 ) ) ;
#8 = FACE_BOUND ( 'NONE', #134, .T. ) ;
#9 = DIRECTION ( 'NONE',  ( 3.890767564418677787E-31, 1.000000000000000000, 1.095153709581323098E-16 ) ) ;
#10 = CC_DESIGN_APPROVAL ( #34, ( #78 ) ) ;
#11 = CARTESIAN_POINT ( 'NONE',  ( 2.793185071074506684E-14, -9.797174393178825657E-16, 8.000000000000000000 ) ) ;
#12 = CALENDAR_DATE ( 2021, 8, 10 ) ;
#13 = PERSON_AND_ORGANIZATION ( #91, #139 ) ;
#14 = CC_DESIGN_SECURITY_CLASSIFICATION ( #103, ( #78 ) ) ;
#15 = APPLICATION_CONTEXT ( 'configuration controlled 3d designs of mechanical parts and assemblies' ) ;
#16 = ORIENTED_EDGE ( 'NONE', *, *, #77, .T. ) ;
#17 = ADVANCED_FACE ( 'NONE', ( #70 ), #72, .F. ) ;
#18 = ORIENTED_EDGE ( 'NONE', *, *, #159, .T. ) ;
#19 = COORDINATED_UNIVERSAL_TIME_OFFSET ( 1, 0, .AHEAD. ) ;
#20 = CIRCLE ( 'NONE', #221, 0.4949999999999974976 ) ;
#21 = ADVANCED_FACE ( 'NONE', ( #175 ), #178, .T. ) ;
#22 = DIRECTION ( 'NONE',  ( 0.0000000000000000000, 1.000000000000000000, 0.0000000000000000000 ) ) ;
#23 = DIRECTION ( 'NONE',  ( 0.0000000000000000000, -1.000000000000000000, 0.0000000000000000000 ) ) ;
#24 = AXIS2_PLACEMENT_3D ( 'NONE', #137, #71, #22 ) ;
#25 = DIRECTION ( 'NONE',  ( -3.491481338843133355E-15, 1.224646799147353207E-16, -1.000000000000000000 ) ) ;
#26 = DATE_TIME_ROLE ( 'creation_date' ) ;
#27 = DIRECTION ( 'NONE',  ( -3.491481338843133355E-15, 1.224646799147353207E-16, -1.000000000000000000 ) ) ;
#28 = PERSON_AND_ORGANIZATION_ROLE ( 'creator' ) ;
#29 = PERSON_AND_ORGANIZATION_ROLE ( 'design_owner' ) ;
#30 = CIRCLE ( 'NONE', #168, 0.4949999999999981637 ) ;
#31 = DATE_AND_TIME ( #141, #197 ) ;
#32 = AXIS2_PLACEMENT_3D ( 'NONE', #106, #7, #172 ) ;
#33 = APPROVAL_PERSON_ORGANIZATION ( #13, #34, #58 ) ;
#34 = APPROVAL ( #93, 'UNSPECIFIED' ) ;
#35 = DIRECTION ( 'NONE',  ( 4.275831445896958607E-31, 1.000000000000000000, 1.224646799147353207E-16 ) ) ;
#36 = AXIS2_PLACEMENT_3D ( 'NONE', #88, #157, #105 ) ;
#37 = CARTESIAN_POINT ( 'NONE',  ( 2.947394359424658774E-14, -1.033806776492853313E-15, 8.441672955930068056 ) ) ;
#38 = CYLINDRICAL_SURFACE ( 'NONE', #36, 0.7499999999999986677 ) ;
#39 = CC_DESIGN_PERSON_AND_ORGANIZATION_ASSIGNMENT ( #75, #29, ( #176 ) ) ;
#40 = APPROVAL_DATE_TIME ( #125, #34 ) ;
#41 = AXIS2_PLACEMENT_3D ( 'NONE', #79, #113, #83 ) ;
#42 = ADVANCED_FACE ( 'NONE', ( #8, #193 ), #206, .T. ) ;
#43 = PERSON_AND_ORGANIZATION_ROLE ( 'classification_officer' ) ;
#44 = CARTESIAN_POINT ( 'NONE',  ( 2.793185071074506684E-14, 0.4949999999999971645, 8.000000000000000000 ) ) ;
#45 = APPROVAL_PERSON_ORGANIZATION ( #6, #100, #82 ) ;
#46 =( NAMED_UNIT ( * ) PLANE_ANGLE_UNIT ( ) SI_UNIT ( $, .RADIAN. ) );
#47 = PLANE ( 'NONE',  #41 ) ;
#48 = EDGE_LOOP ( 'NONE', ( #150 ) ) ;
#49 = EDGE_LOOP ( 'NONE', ( #18 ) ) ;
#50 = DIRECTION ( 'NONE',  ( -3.491481338843133355E-15, 1.224646799147353207E-16, -1.000000000000000000 ) ) ;
#51 = CARTESIAN_POINT ( 'NONE',  ( 0.0000000000000000000, 0.0000000000000000000, 0.0000000000000000000 ) ) ;
#52 = CARTESIAN_POINT ( 'NONE',  ( 2.947394359424658774E-14, -1.033806776492853313E-15, 8.441672955930068056 ) ) ;
#53 = APPROVAL_STATUS ( 'not_yet_approved' ) ;
#54 = MANIFOLD_SOLID_BREP ( 'Corps-Déplacer/Copier1[1]', #164 ) ;
#55 = PERSON_AND_ORGANIZATION ( #91, #139 ) ;
#56 = CLOSED_SHELL ( 'NONE', ( #200, #132, #21 ) ) ;
#57 = AXIS2_PLACEMENT_3D ( 'NONE', #143, #127, #108 ) ;
#58 = APPROVAL_ROLE ( '' ) ;
#59 = DATE_TIME_ROLE ( 'classification_date' ) ;
#60 = CONICAL_SURFACE ( 'NONE', #32, 0.4949999999999974976, 1.029744258676649649 ) ;
#61 = SECURITY_CLASSIFICATION_LEVEL ( 'unclassified' ) ;
#62 = EDGE_CURVE ( 'NONE', #199, #199, #177, .T. ) ;
#63 = APPROVAL_DATE_TIME ( #148, #100 ) ;
#64 = MECHANICAL_CONTEXT ( 'NONE', #215, 'mechanical' ) ;
#65 = ORIENTED_EDGE ( 'NONE', *, *, #220, .T. ) ;
#66 = AXIS2_PLACEMENT_3D ( 'NONE', #51, #120, #35 ) ;
#67 = ORIENTED_EDGE ( 'NONE', *, *, #62, .T. ) ;
#68 = PERSON_AND_ORGANIZATION_ROLE ( 'creator' ) ;
#69 = DIRECTION ( 'NONE',  ( -3.491481338843133355E-15, 1.224646799147353207E-16, -1.000000000000000000 ) ) ;
#70 = FACE_OUTER_BOUND ( 'NONE', #186, .T. ) ;
#71 = DIRECTION ( 'NONE',  ( -3.491481338843133355E-15, 1.224646799147353207E-16, -1.000000000000000000 ) ) ;
#72 = PLANE ( 'NONE',  #2 ) ;
#73 = APPROVAL_STATUS ( 'not_yet_approved' ) ;
#74 = CALENDAR_DATE ( 2021, 8, 10 ) ;
#75 = PERSON_AND_ORGANIZATION ( #91, #139 ) ;
#76 = CC_DESIGN_APPROVAL ( #100, ( #183 ) ) ;
#77 = EDGE_CURVE ( 'NONE', #165, #165, #20, .T. ) ;
#78 = PRODUCT_DEFINITION_FORMATION_WITH_SPECIFIED_SOURCE ( 'ANY', '', #176, .NOT_KNOWN. ) ;
#79 = CARTESIAN_POINT ( 'NONE',  ( 2.793185071074506684E-14, 3.711905462088068568E-33, 8.000000000000000000 ) ) ;
#80 = CC_DESIGN_DATE_AND_TIME_ASSIGNMENT ( #90, #59, ( #103 ) ) ;
#81 = ORIENTED_EDGE ( 'NONE', *, *, #203, .F. ) ;
#82 = APPROVAL_ROLE ( '' ) ;
#83 = DIRECTION ( 'NONE',  ( -4.275831445896958607E-31, -1.000000000000000000, -1.224646799147353207E-16 ) ) ;
#84 =( GEOMETRIC_REPRESENTATION_CONTEXT ( 3 ) GLOBAL_UNCERTAINTY_ASSIGNED_CONTEXT ( ( #146 ) ) GLOBAL_UNIT_ASSIGNED_CONTEXT ( ( #96, #46, #128 ) ) REPRESENTATION_CONTEXT ( 'NONE', 'WORKASPACE' ) );
#85 = EDGE_LOOP ( 'NONE', ( #65 ) ) ;
#86 = CALENDAR_DATE ( 2021, 8, 10 ) ;
#87 = FACE_OUTER_BOUND ( 'NONE', #48, .T. ) ;
#88 = CARTESIAN_POINT ( 'NONE',  ( 0.0000000000000000000, 0.0000000000000000000, 0.0000000000000000000 ) ) ;
#89 = CARTESIAN_POINT ( 'NONE',  ( 1.047444401652940007E-13, 4.124339402320052999E-33, 30.00000000000000000 ) ) ;
#90 = DATE_AND_TIME ( #144, #97 ) ;
#91 = PERSON ( 'UNSPECIFIED', 'UNSPECIFIED', 'UNSPECIFIED', ('UNSPECIFIED'), ('UNSPECIFIED'), ('UNSPECIFIED') ) ;
#92 = CARTESIAN_POINT ( 'NONE',  ( 1.038457351097334116E-15, -3.642418067437726416E-17, 0.2974260064186441399 ) ) ;
#93 = APPROVAL_STATUS ( 'not_yet_approved' ) ;
#94 = DIRECTION ( 'NONE',  ( 1.000000000000000000, 0.0000000000000000000, 0.0000000000000000000 ) ) ;
#95 = CONICAL_SURFACE ( 'NONE', #118, 0.5500000000000000444, 0.7853981633974510546 ) ;
#96 =( LENGTH_UNIT ( ) NAMED_UNIT ( * ) SI_UNIT ( .MILLI., .METRE. ) );
#97 = LOCAL_TIME ( 7, 14, 54.00000000000000000, #181 ) ;
#98 = EDGE_LOOP ( 'NONE', ( #212 ) ) ;
#99 = FACE_BOUND ( 'NONE', #49, .T. ) ;
#100 = APPROVAL ( #53, 'UNSPECIFIED' ) ;
#101 = CARTESIAN_POINT ( 'NONE',  ( 2.793185071074506684E-14, 3.711905462088068568E-33, 8.000000000000000000 ) ) ;
#102 = DIRECTION ( 'NONE',  ( 4.275831445896958607E-31, 1.000000000000000000, 1.224646799147353207E-16 ) ) ;
#103 = SECURITY_CLASSIFICATION ( '', '', #61 ) ;
#104 = DIRECTION ( 'NONE',  ( -3.491481338843133355E-15, 1.224646799147353207E-16, -1.000000000000000000 ) ) ;
#105 = DIRECTION ( 'NONE',  ( 4.275831445896959482E-31, 1.000000000000000000, 1.224646799147353207E-16 ) ) ;
#106 = CARTESIAN_POINT ( 'NONE',  ( 1.038457351097334116E-15, -3.642418067437726416E-17, 0.2974260064186441399 ) ) ;
#107 = DATE_AND_TIME ( #74, #161 ) ;
#108 = DIRECTION ( 'NONE',  ( 0.0000000000000000000, 1.000000000000000000, 0.0000000000000000000 ) ) ;
#109 = CARTESIAN_POINT ( 'NONE',  ( 2.793185071074506684E-14, 0.4949999999999971645, 8.000000000000000000 ) ) ;
#110 = ADVANCED_BREP_SHAPE_REPRESENTATION ( '55351', ( #54, #131, #145 ), #84 ) ;
#111 = SHAPE_DEFINITION_REPRESENTATION ( #123, #110 ) ;
#112 = AXIS2_PLACEMENT_3D ( 'NONE', #155, #27, #196 ) ;
#113 = DIRECTION ( 'NONE',  ( 3.491481338843133355E-15, -1.224646799147353207E-16, 1.000000000000000000 ) ) ;
#114 = VERTEX_POINT ( 'NONE', #162 ) ;
#115 = PRODUCT_RELATED_PRODUCT_CATEGORY ( 'detail', '', ( #176 ) ) ;
#116 = EDGE_LOOP ( 'NONE', ( #173 ) ) ;
#117 = EDGE_LOOP ( 'NONE', ( #1 ) ) ;
#118 = AXIS2_PLACEMENT_3D ( 'NONE', #184, #50, #121 ) ;
#119 = DIRECTION ( 'NONE',  ( 0.0000000000000000000, 1.000000000000000000, 0.0000000000000000000 ) ) ;
#120 = DIRECTION ( 'NONE',  ( -3.491481338843133355E-15, 1.224646799147353207E-16, -1.000000000000000000 ) ) ;
#121 = DIRECTION ( 'NONE',  ( 0.0000000000000000000, 1.000000000000000000, 0.0000000000000000000 ) ) ;
#122 = AXIS2_PLACEMENT_3D ( 'NONE', #37, #104, #191 ) ;
#123 = PRODUCT_DEFINITION_SHAPE ( 'NONE', 'NONE',  #183 ) ;
#124 = APPROVAL_DATE_TIME ( #107, #156 ) ;
#125 = DATE_AND_TIME ( #12, #202 ) ;
#126 = PERSON_AND_ORGANIZATION ( #91, #139 ) ;
#127 = DIRECTION ( 'NONE',  ( -3.491481338843133355E-15, 1.224646799147353207E-16, -1.000000000000000000 ) ) ;
#128 =( NAMED_UNIT ( * ) SI_UNIT ( $, .STERADIAN. ) SOLID_ANGLE_UNIT ( ) );
#129 = CC_DESIGN_PERSON_AND_ORGANIZATION_ASSIGNMENT ( #55, #28, ( #78 ) ) ;
#130 = CARTESIAN_POINT ( 'NONE',  ( 1.047444401652940007E-13, 0.5499999999999963807, 30.00000000000000000 ) ) ;
#131 = MANIFOLD_SOLID_BREP ( 'Corps-Déplacer/Copier1[2]', #56 ) ;
#132 = ADVANCED_FACE ( 'NONE', ( #5, #136 ), #213, .T. ) ;
#133 = APPROVAL_PERSON_ORGANIZATION ( #140, #156, #216 ) ;
#134 = EDGE_LOOP ( 'NONE', ( #207 ) ) ;
#135 = EDGE_LOOP ( 'NONE', ( #16 ) ) ;
#136 = FACE_OUTER_BOUND ( 'NONE', #169, .T. ) ;
#137 = CARTESIAN_POINT ( 'NONE',  ( 1.047444401652940007E-13, -3.673940397442059178E-15, 30.00000000000000000 ) ) ;
#138 = DIRECTION ( 'NONE',  ( -4.275831445896958607E-31, -1.000000000000000000, -1.224646799147353207E-16 ) ) ;
#139 = ORGANIZATION ( 'UNSPECIFIED', 'UNSPECIFIED', '' ) ;
#140 = PERSON_AND_ORGANIZATION ( #91, #139 ) ;
#141 = CALENDAR_DATE ( 2021, 8, 10 ) ;
#142 = VERTEX_POINT ( 'NONE', #218 ) ;
#143 = CARTESIAN_POINT ( 'NONE',  ( 1.040461438975253740E-13, -3.649447461459112464E-15, 29.80000000000000071 ) ) ;
#144 = CALENDAR_DATE ( 2021, 8, 10 ) ;
#145 = AXIS2_PLACEMENT_3D ( 'NONE', #167, #204, #94 ) ;
#146 = UNCERTAINTY_MEASURE_WITH_UNIT (LENGTH_MEASURE( 1.000000000000000082E-05 ), #96, 'distance_accuracy_value', 'NONE');
#147 = VERTEX_POINT ( 'NONE', #130 ) ;
#148 = DATE_AND_TIME ( #86, #170 ) ;
#149 = APPLICATION_PROTOCOL_DEFINITION ( 'international standard', 'config_control_design', 1994, #215 ) ;
#150 = ORIENTED_EDGE ( 'NONE', *, *, #205, .T. ) ;
#151 = EDGE_LOOP ( 'NONE', ( #81 ) ) ;
#152 = CIRCLE ( 'NONE', #57, 0.7499999999999998890 ) ;
#153 = FACE_OUTER_BOUND ( 'NONE', #151, .T. ) ;
#154 = CIRCLE ( 'NONE', #24, 0.5500000000000000444 ) ;
#155 = CARTESIAN_POINT ( 'NONE',  ( 2.793185071074506684E-14, -9.797174393178825657E-16, 8.000000000000000000 ) ) ;
#156 = APPROVAL ( #73, 'UNSPECIFIED' ) ;
#157 = DIRECTION ( 'NONE',  ( -3.491481338843133355E-15, 1.224646799147353207E-16, -1.000000000000000000 ) ) ;
#158 = COORDINATED_UNIVERSAL_TIME_OFFSET ( 1, 0, .AHEAD. ) ;
#159 = EDGE_CURVE ( 'NONE', #147, #147, #154, .T. ) ;
#160 = DIRECTION ( 'NONE',  ( 3.491481338843133355E-15, -1.224646799147353207E-16, 1.000000000000000000 ) ) ;
#161 = LOCAL_TIME ( 7, 14, 54.00000000000000000, #217 ) ;
#162 = CARTESIAN_POINT ( 'NONE',  ( 2.947394359424658774E-14, 0.7499999999999963363, 8.441672955930068056 ) ) ;
#163 = VERTEX_POINT ( 'NONE', #109 ) ;
#164 = CLOSED_SHELL ( 'NONE', ( #166, #42, #3, #179, #17 ) ) ;
#165 = VERTEX_POINT ( 'NONE', #222 ) ;
#166 = ADVANCED_FACE ( 'NONE', ( #87 ), #47, .F. ) ;
#167 = CARTESIAN_POINT ( 'NONE',  ( 0.0000000000000000000, 0.0000000000000000000, 0.0000000000000000000 ) ) ;
#168 = AXIS2_PLACEMENT_3D ( 'NONE', #11, #69, #119 ) ;
#169 = EDGE_LOOP ( 'NONE', ( #67 ) ) ;
#170 = LOCAL_TIME ( 7, 14, 54.00000000000000000, #190 ) ;
#171 = CC_DESIGN_PERSON_AND_ORGANIZATION_ASSIGNMENT ( #126, #198, ( #78 ) ) ;
#172 = DIRECTION ( 'NONE',  ( -3.890767564418677787E-31, -1.000000000000000000, -1.095153709581323098E-16 ) ) ;
#173 = ORIENTED_EDGE ( 'NONE', *, *, #203, .T. ) ;
#174 = FACE_OUTER_BOUND ( 'NONE', #135, .T. ) ;
#175 = FACE_OUTER_BOUND ( 'NONE', #98, .T. ) ;
#176 = PRODUCT ( '55351', '55351', '', ( #64 ) ) ;
#177 = CIRCLE ( 'NONE', #112, 0.4949999999999981637 ) ;
#178 = PLANE ( 'NONE',  #195 ) ;
#179 = ADVANCED_FACE ( 'NONE', ( #208, #99 ), #95, .T. ) ;
#180 = DIRECTION ( 'NONE',  ( 3.491481338843133355E-15, -1.224646799147353207E-16, 1.000000000000000000 ) ) ;
#181 = COORDINATED_UNIVERSAL_TIME_OFFSET ( 1, 0, .AHEAD. ) ;
#182 = CIRCLE ( 'NONE', #122, 0.7499999999999974465 ) ;
#183 = PRODUCT_DEFINITION ( 'UNKNOWN', '', #78, #201 ) ;
#184 = CARTESIAN_POINT ( 'NONE',  ( 1.047444401652940007E-13, -3.673940397442059178E-15, 30.00000000000000000 ) ) ;
#185 = CC_DESIGN_PERSON_AND_ORGANIZATION_ASSIGNMENT ( #219, #43, ( #103 ) ) ;
#186 = EDGE_LOOP ( 'NONE', ( #223 ) ) ;
#187 = CC_DESIGN_PERSON_AND_ORGANIZATION_ASSIGNMENT ( #189, #68, ( #183 ) ) ;
#188 = FACE_OUTER_BOUND ( 'NONE', #85, .T. ) ;
#189 = PERSON_AND_ORGANIZATION ( #91, #139 ) ;
#190 = COORDINATED_UNIVERSAL_TIME_OFFSET ( 1, 0, .AHEAD. ) ;
#191 = DIRECTION ( 'NONE',  ( 0.0000000000000000000, 1.000000000000000000, 0.0000000000000000000 ) ) ;
#192 = EDGE_LOOP ( 'NONE', ( #209 ) ) ;
#193 = FACE_OUTER_BOUND ( 'NONE', #116, .T. ) ;
#194 = APPLICATION_PROTOCOL_DEFINITION ( 'international standard', 'config_control_design', 1994, #15 ) ;
#195 = AXIS2_PLACEMENT_3D ( 'NONE', #101, #160, #138 ) ;
#196 = DIRECTION ( 'NONE',  ( 0.0000000000000000000, 1.000000000000000000, 0.0000000000000000000 ) ) ;
#197 = LOCAL_TIME ( 7, 14, 54.00000000000000000, #19 ) ;
#198 = PERSON_AND_ORGANIZATION_ROLE ( 'design_supplier' ) ;
#199 = VERTEX_POINT ( 'NONE', #44 ) ;
#200 = ADVANCED_FACE ( 'NONE', ( #174 ), #60, .T. ) ;
#201 = DESIGN_CONTEXT ( 'detailed design', #15, 'design' ) ;
#202 = LOCAL_TIME ( 7, 14, 54.00000000000000000, #158 ) ;
#203 = EDGE_CURVE ( 'NONE', #114, #114, #182, .T. ) ;
#204 = DIRECTION ( 'NONE',  ( 0.0000000000000000000, 0.0000000000000000000, 1.000000000000000000 ) ) ;
#205 = EDGE_CURVE ( 'NONE', #163, #163, #30, .T. ) ;
#206 = CONICAL_SURFACE ( 'NONE', #211, 0.7499999999999974465, 0.5235987755982930425 ) ;
#207 = ORIENTED_EDGE ( 'NONE', *, *, #205, .F. ) ;
#208 = FACE_OUTER_BOUND ( 'NONE', #117, .T. ) ;
#209 = ORIENTED_EDGE ( 'NONE', *, *, #77, .F. ) ;
#210 = CC_DESIGN_DATE_AND_TIME_ASSIGNMENT ( #31, #26, ( #183 ) ) ;
#211 = AXIS2_PLACEMENT_3D ( 'NONE', #52, #180, #23 ) ;
#212 = ORIENTED_EDGE ( 'NONE', *, *, #62, .F. ) ;
#213 = CYLINDRICAL_SURFACE ( 'NONE', #66, 0.4949999999999978306 ) ;
#214 = DIRECTION ( 'NONE',  ( -3.491481338843133355E-15, 1.224646799147353207E-16, -1.000000000000000000 ) ) ;
#215 = APPLICATION_CONTEXT ( 'configuration controlled 3d designs of mechanical parts and assemblies' ) ;
#216 = APPROVAL_ROLE ( '' ) ;
#217 = COORDINATED_UNIVERSAL_TIME_OFFSET ( 1, 0, .AHEAD. ) ;
#218 = CARTESIAN_POINT ( 'NONE',  ( 1.040461438975253740E-13, 0.7499999999999962252, 29.80000000000000071 ) ) ;
#219 = PERSON_AND_ORGANIZATION ( #91, #139 ) ;
#220 = EDGE_CURVE ( 'NONE', #142, #142, #152, .T. ) ;
#221 = AXIS2_PLACEMENT_3D ( 'NONE', #92, #25, #9 ) ;
#222 = CARTESIAN_POINT ( 'NONE',  ( 1.038457351097334313E-15, 0.4949999999999974976, 0.2974260064186441954 ) ) ;
#223 = ORIENTED_EDGE ( 'NONE', *, *, #159, .F. ) ;
ENDSEC;
END-ISO-10303-21;
