ISO-10303-21;
HEADER;
FILE_DESCRIPTION (( 'STEP AP203' ),
    '1' );
FILE_NAME ('55350.step',
    '2021-10-08T05:14:53',
    ( '' ),
    ( '' ),
    'SwSTEP 2.0',
    'SolidWorks 2019',
    '' );
FILE_SCHEMA (( 'CONFIG_CONTROL_DESIGN' ));
ENDSEC;

DATA;
#1 = PERSON ( 'UNSPECIFIED', 'UNSPECIFIED', 'UNSPECIFIED', ('UNSPECIFIED'), ('UNSPECIFIED'), ('UNSPECIFIED') ) ;
#2 = DATE_AND_TIME ( #60, #90 ) ;
#3 = FACE_OUTER_BOUND ( 'NONE', #191, .T. ) ;
#4 = APPROVAL_PERSON_ORGANIZATION ( #141, #151, #43 ) ;
#5 = ORIENTED_EDGE ( 'NONE', *, *, #117, .T. ) ;
#6 = FACE_OUTER_BOUND ( 'NONE', #163, .T. ) ;
#7 = AXIS2_PLACEMENT_3D ( 'NONE', #154, #25, #53 ) ;
#8 = ORIENTED_EDGE ( 'NONE', *, *, #102, .F. ) ;
#9 = DATE_TIME_ROLE ( 'creation_date' ) ;
#10 = MECHANICAL_CONTEXT ( 'NONE', #124, 'mechanical' ) ;
#11 = UNCERTAINTY_MEASURE_WITH_UNIT (LENGTH_MEASURE( 1.000000000000000082E-05 ), #207, 'distance_accuracy_value', 'NONE');
#12 = CARTESIAN_POINT ( 'NONE',  ( 1.047444401652940007E-13, -3.673940397442059178E-15, 30.00000000000000000 ) ) ;
#13 = CC_DESIGN_PERSON_AND_ORGANIZATION_ASSIGNMENT ( #30, #144, ( #190 ) ) ;
#14 = VERTEX_POINT ( 'NONE', #161 ) ;
#15 = DATE_AND_TIME ( #212, #121 ) ;
#16 = APPROVAL_DATE_TIME ( #118, #38 ) ;
#17 = AXIS2_PLACEMENT_3D ( 'NONE', #22, #138, #103 ) ;
#18 = ORIENTED_EDGE ( 'NONE', *, *, #188, .T. ) ;
#19 = PRODUCT_RELATED_PRODUCT_CATEGORY ( 'detail', '', ( #190 ) ) ;
#20 = DIRECTION ( 'NONE',  ( 0.0000000000000000000, -1.000000000000000000, 0.0000000000000000000 ) ) ;
#21 = DIRECTION ( 'NONE',  ( 0.0000000000000000000, 1.000000000000000000, 0.0000000000000000000 ) ) ;
#22 = CARTESIAN_POINT ( 'NONE',  ( 0.0000000000000000000, 0.0000000000000000000, 0.0000000000000000000 ) ) ;
#23 = CC_DESIGN_APPROVAL ( #38, ( #31 ) ) ;
#24 = DIRECTION ( 'NONE',  ( -3.491481338843133355E-15, 1.224646799147353207E-16, -1.000000000000000000 ) ) ;
#25 = DIRECTION ( 'NONE',  ( -3.491481338843133355E-15, 1.224646799147353207E-16, -1.000000000000000000 ) ) ;
#26 = CONICAL_SURFACE ( 'NONE', #58, 0.5500000000000000444, 0.7853981633974510546 ) ;
#27 = CONICAL_SURFACE ( 'NONE', #182, 0.4899999999999974931, 1.029744258676649649 ) ;
#28 = VERTEX_POINT ( 'NONE', #180 ) ;
#29 = ADVANCED_FACE ( 'NONE', ( #6, #122 ), #179, .T. ) ;
#30 = PERSON_AND_ORGANIZATION ( #1, #162 ) ;
#31 = SECURITY_CLASSIFICATION ( '', '', #97 ) ;
#32 = PERSON_AND_ORGANIZATION_ROLE ( 'classification_officer' ) ;
#33 = PRODUCT_DEFINITION_SHAPE ( 'NONE', 'NONE',  #222 ) ;
#34 = EDGE_LOOP ( 'NONE', ( #81 ) ) ;
#35 = CC_DESIGN_DATE_AND_TIME_ASSIGNMENT ( #48, #9, ( #222 ) ) ;
#36 = FACE_OUTER_BOUND ( 'NONE', #152, .T. ) ;
#37 = DIRECTION ( 'NONE',  ( -3.491481338843133355E-15, 1.224646799147353207E-16, -1.000000000000000000 ) ) ;
#38 = APPROVAL ( #147, 'UNSPECIFIED' ) ;
#39 = AXIS2_PLACEMENT_3D ( 'NONE', #201, #175, #69 ) ;
#40 = ORIENTED_EDGE ( 'NONE', *, *, #172, .T. ) ;
#41 = LOCAL_TIME ( 7, 14, 53.00000000000000000, #47 ) ;
#42 = CARTESIAN_POINT ( 'NONE',  ( 2.793185071074506684E-14, 3.674411467521530749E-33, 8.000000000000000000 ) ) ;
#43 = APPROVAL_ROLE ( '' ) ;
#44 = ADVANCED_FACE ( 'NONE', ( #3 ), #120, .F. ) ;
#45 = DIRECTION ( 'NONE',  ( 0.0000000000000000000, 0.0000000000000000000, 1.000000000000000000 ) ) ;
#46 = MANIFOLD_SOLID_BREP ( 'Corps-Déplacer/Copier1[1]', #200 ) ;
#47 = COORDINATED_UNIVERSAL_TIME_OFFSET ( 1, 0, .AHEAD. ) ;
#48 = DATE_AND_TIME ( #130, #41 ) ;
#49 = DIRECTION ( 'NONE',  ( -3.930469274259685230E-31, -1.000000000000000000, -1.106328747434193891E-16 ) ) ;
#50 = ADVANCED_FACE ( 'NONE', ( #66 ), #159, .T. ) ;
#51 = AXIS2_PLACEMENT_3D ( 'NONE', #107, #74, #72 ) ;
#52 = FACE_OUTER_BOUND ( 'NONE', #192, .T. ) ;
#53 = DIRECTION ( 'NONE',  ( 4.275831445896958607E-31, 1.000000000000000000, 1.224646799147353207E-16 ) ) ;
#54 = ORIENTED_EDGE ( 'NONE', *, *, #117, .F. ) ;
#55 = EDGE_LOOP ( 'NONE', ( #5 ) ) ;
#56 = AXIS2_PLACEMENT_3D ( 'NONE', #86, #156, #70 ) ;
#57 = ORIENTED_EDGE ( 'NONE', *, *, #172, .F. ) ;
#58 = AXIS2_PLACEMENT_3D ( 'NONE', #114, #99, #194 ) ;
#59 = CARTESIAN_POINT ( 'NONE',  ( 1.040461438975253740E-13, 0.7499999999999962252, 29.80000000000000071 ) ) ;
#60 = CALENDAR_DATE ( 2021, 8, 10 ) ;
#61 = VERTEX_POINT ( 'NONE', #73 ) ;
#62 = PERSON_AND_ORGANIZATION_ROLE ( 'creator' ) ;
#63 = AXIS2_PLACEMENT_3D ( 'NONE', #110, #45, #146 ) ;
#64 = FACE_OUTER_BOUND ( 'NONE', #196, .T. ) ;
#65 = ORIENTED_EDGE ( 'NONE', *, *, #79, .F. ) ;
#66 = FACE_OUTER_BOUND ( 'NONE', #137, .T. ) ;
#67 = FACE_OUTER_BOUND ( 'NONE', #55, .T. ) ;
#68 = DIRECTION ( 'NONE',  ( 3.930469274259685230E-31, 1.000000000000000000, 1.106328747434193891E-16 ) ) ;
#69 = DIRECTION ( 'NONE',  ( 4.275831445896957731E-31, 1.000000000000000000, 1.224646799147352961E-16 ) ) ;
#70 = DIRECTION ( 'NONE',  ( 0.0000000000000000000, 1.000000000000000000, 0.0000000000000000000 ) ) ;
#71 = PERSON_AND_ORGANIZATION ( #1, #162 ) ;
#72 = DIRECTION ( 'NONE',  ( 0.0000000000000000000, 1.000000000000000000, 0.0000000000000000000 ) ) ;
#73 = CARTESIAN_POINT ( 'NONE',  ( 2.793185071074506684E-14, 0.4899999999999982703, 8.000000000000000000 ) ) ;
#74 = DIRECTION ( 'NONE',  ( -3.491481338843133355E-15, 1.224646799147353207E-16, -1.000000000000000000 ) ) ;
#75 = CC_DESIGN_PERSON_AND_ORGANIZATION_ASSIGNMENT ( #223, #62, ( #222 ) ) ;
#76 = PERSON_AND_ORGANIZATION ( #1, #162 ) ;
#77 = EDGE_LOOP ( 'NONE', ( #40 ) ) ;
#78 = AXIS2_PLACEMENT_3D ( 'NONE', #98, #37, #84 ) ;
#79 = EDGE_CURVE ( 'NONE', #92, #92, #193, .T. ) ;
#80 = CALENDAR_DATE ( 2021, 8, 10 ) ;
#81 = ORIENTED_EDGE ( 'NONE', *, *, #216, .T. ) ;
#82 = EDGE_LOOP ( 'NONE', ( #181 ) ) ;
#83 = PERSON_AND_ORGANIZATION_ROLE ( 'design_supplier' ) ;
#84 = DIRECTION ( 'NONE',  ( 0.0000000000000000000, 1.000000000000000000, 0.0000000000000000000 ) ) ;
#85 = APPROVAL_PERSON_ORGANIZATION ( #76, #38, #148 ) ;
#86 = CARTESIAN_POINT ( 'NONE',  ( 2.950418070960936909E-14, -1.034867351731578357E-15, 8.450333209967913817 ) ) ;
#87 = AXIS2_PLACEMENT_3D ( 'NONE', #100, #24, #68 ) ;
#88 = FACE_OUTER_BOUND ( 'NONE', #82, .T. ) ;
#89 = FACE_BOUND ( 'NONE', #189, .T. ) ;
#90 = LOCAL_TIME ( 7, 14, 53.00000000000000000, #105 ) ;
#91 = ORIENTED_EDGE ( 'NONE', *, *, #188, .F. ) ;
#92 = VERTEX_POINT ( 'NONE', #143 ) ;
#93 = APPLICATION_PROTOCOL_DEFINITION ( 'international standard', 'config_control_design', 1994, #210 ) ;
#94 = ADVANCED_FACE ( 'NONE', ( #88 ), #178, .F. ) ;
#95 = AXIS2_PLACEMENT_3D ( 'NONE', #42, #119, #213 ) ;
#96 = VERTEX_POINT ( 'NONE', #59 ) ;
#97 = SECURITY_CLASSIFICATION_LEVEL ( 'unclassified' ) ;
#98 = CARTESIAN_POINT ( 'NONE',  ( 1.040461438975253740E-13, -3.649447461459112464E-15, 29.80000000000000071 ) ) ;
#99 = DIRECTION ( 'NONE',  ( -3.491481338843133355E-15, 1.224646799147353207E-16, -1.000000000000000000 ) ) ;
#100 = CARTESIAN_POINT ( 'NONE',  ( 1.027967882904431438E-15, -3.605625965746435759E-17, 0.2944217033235062564 ) ) ;
#101 = CIRCLE ( 'NONE', #51, 0.4899999999999992140 ) ;
#102 = EDGE_CURVE ( 'NONE', #61, #61, #215, .T. ) ;
#103 = DIRECTION ( 'NONE',  ( 4.275831445896959482E-31, 1.000000000000000000, 1.224646799147353207E-16 ) ) ;
#104 = CARTESIAN_POINT ( 'NONE',  ( 2.793185071074506684E-14, -9.797174393178825657E-16, 8.000000000000000000 ) ) ;
#105 = COORDINATED_UNIVERSAL_TIME_OFFSET ( 1, 0, .AHEAD. ) ;
#106 = VERTEX_POINT ( 'NONE', #126 ) ;
#107 = CARTESIAN_POINT ( 'NONE',  ( 2.793185071074506684E-14, -9.797174393178825657E-16, 8.000000000000000000 ) ) ;
#108 = ADVANCED_FACE ( 'NONE', ( #89, #199 ), #177, .T. ) ;
#109 =( NAMED_UNIT ( * ) SI_UNIT ( $, .STERADIAN. ) SOLID_ANGLE_UNIT ( ) );
#110 = CARTESIAN_POINT ( 'NONE',  ( 0.0000000000000000000, 0.0000000000000000000, 0.0000000000000000000 ) ) ;
#111 = AXIS2_PLACEMENT_3D ( 'NONE', #12, #221, #185 ) ;
#112 = CC_DESIGN_DATE_AND_TIME_ASSIGNMENT ( #15, #168, ( #31 ) ) ;
#113 = MANIFOLD_SOLID_BREP ( 'Corps-Déplacer/Copier1[2]', #171 ) ;
#114 = CARTESIAN_POINT ( 'NONE',  ( 1.047444401652940007E-13, -3.673940397442059178E-15, 30.00000000000000000 ) ) ;
#115 = CIRCLE ( 'NONE', #111, 0.5500000000000000444 ) ;
#116 = FACE_BOUND ( 'NONE', #34, .T. ) ;
#117 = EDGE_CURVE ( 'NONE', #96, #96, #208, .T. ) ;
#118 = DATE_AND_TIME ( #80, #155 ) ;
#119 = DIRECTION ( 'NONE',  ( 3.491481338843133355E-15, -1.224646799147353207E-16, 1.000000000000000000 ) ) ;
#120 = PLANE ( 'NONE',  #7 ) ;
#121 = LOCAL_TIME ( 7, 14, 53.00000000000000000, #131 ) ;
#122 = FACE_OUTER_BOUND ( 'NONE', #139, .T. ) ;
#123 = CC_DESIGN_APPROVAL ( #151, ( #167 ) ) ;
#124 = APPLICATION_CONTEXT ( 'configuration controlled 3d designs of mechanical parts and assemblies' ) ;
#125 = COORDINATED_UNIVERSAL_TIME_OFFSET ( 1, 0, .AHEAD. ) ;
#126 = CARTESIAN_POINT ( 'NONE',  ( 2.950418070960936909E-14, 0.7499999999999963363, 8.450333209967913817 ) ) ;
#127 = AXIS2_PLACEMENT_3D ( 'NONE', #140, #217, #134 ) ;
#128 = ADVANCED_FACE ( 'NONE', ( #64, #67 ), #211, .T. ) ;
#129 = CALENDAR_DATE ( 2021, 8, 10 ) ;
#130 = CALENDAR_DATE ( 2021, 8, 10 ) ;
#131 = COORDINATED_UNIVERSAL_TIME_OFFSET ( 1, 0, .AHEAD. ) ;
#132 = PERSON_AND_ORGANIZATION ( #1, #162 ) ;
#133 = CARTESIAN_POINT ( 'NONE',  ( 1.027967882904431438E-15, -3.605625965746435759E-17, 0.2944217033235062564 ) ) ;
#134 = DIRECTION ( 'NONE',  ( -4.275831445896958607E-31, -1.000000000000000000, -1.224646799147353207E-16 ) ) ;
#135 = ADVANCED_FACE ( 'NONE', ( #36 ), #27, .T. ) ;
#136 = APPROVAL_PERSON_ORGANIZATION ( #71, #198, #165 ) ;
#137 = EDGE_LOOP ( 'NONE', ( #91 ) ) ;
#138 = DIRECTION ( 'NONE',  ( -3.491481338843133355E-15, 1.224646799147353207E-16, -1.000000000000000000 ) ) ;
#139 = EDGE_LOOP ( 'NONE', ( #18 ) ) ;
#140 = CARTESIAN_POINT ( 'NONE',  ( 2.793185071074506684E-14, 3.674411467521530749E-33, 8.000000000000000000 ) ) ;
#141 = PERSON_AND_ORGANIZATION ( #1, #162 ) ;
#142 = CC_DESIGN_SECURITY_CLASSIFICATION ( #31, ( #167 ) ) ;
#143 = CARTESIAN_POINT ( 'NONE',  ( 1.027967882904431635E-15, 0.4899999999999974931, 0.2944217033235063119 ) ) ;
#144 = PERSON_AND_ORGANIZATION_ROLE ( 'design_owner' ) ;
#145 =( GEOMETRIC_REPRESENTATION_CONTEXT ( 3 ) GLOBAL_UNCERTAINTY_ASSIGNED_CONTEXT ( ( #11 ) ) GLOBAL_UNIT_ASSIGNED_CONTEXT ( ( #207, #183, #109 ) ) REPRESENTATION_CONTEXT ( 'NONE', 'WORKASPACE' ) );
#146 = DIRECTION ( 'NONE',  ( 1.000000000000000000, 0.0000000000000000000, 0.0000000000000000000 ) ) ;
#147 = APPROVAL_STATUS ( 'not_yet_approved' ) ;
#148 = APPROVAL_ROLE ( '' ) ;
#149 = LOCAL_TIME ( 7, 14, 53.00000000000000000, #125 ) ;
#150 = PERSON_AND_ORGANIZATION_ROLE ( 'creator' ) ;
#151 = APPROVAL ( #203, 'UNSPECIFIED' ) ;
#152 = EDGE_LOOP ( 'NONE', ( #214 ) ) ;
#153 = SHAPE_DEFINITION_REPRESENTATION ( #33, #197 ) ;
#154 = CARTESIAN_POINT ( 'NONE',  ( 1.047444401652940007E-13, 4.124339402320052999E-33, 30.00000000000000000 ) ) ;
#155 = LOCAL_TIME ( 7, 14, 53.00000000000000000, #169 ) ;
#156 = DIRECTION ( 'NONE',  ( -3.491481338843133355E-15, 1.224646799147353207E-16, -1.000000000000000000 ) ) ;
#157 = CC_DESIGN_PERSON_AND_ORGANIZATION_ASSIGNMENT ( #173, #32, ( #31 ) ) ;
#158 = CIRCLE ( 'NONE', #56, 0.7499999999999974465 ) ;
#159 = PLANE ( 'NONE',  #127 ) ;
#160 = DIRECTION ( 'NONE',  ( 3.491481338843133355E-15, -1.224646799147353207E-16, 1.000000000000000000 ) ) ;
#161 = CARTESIAN_POINT ( 'NONE',  ( 1.047444401652940007E-13, 0.5499999999999963807, 30.00000000000000000 ) ) ;
#162 = ORGANIZATION ( 'UNSPECIFIED', 'UNSPECIFIED', '' ) ;
#163 = EDGE_LOOP ( 'NONE', ( #65 ) ) ;
#164 = ADVANCED_FACE ( 'NONE', ( #52, #116 ), #26, .T. ) ;
#165 = APPROVAL_ROLE ( '' ) ;
#166 = APPLICATION_PROTOCOL_DEFINITION ( 'international standard', 'config_control_design', 1994, #124 ) ;
#167 = PRODUCT_DEFINITION_FORMATION_WITH_SPECIFIED_SOURCE ( 'ANY', '', #190, .NOT_KNOWN. ) ;
#168 = DATE_TIME_ROLE ( 'classification_date' ) ;
#169 = COORDINATED_UNIVERSAL_TIME_OFFSET ( 1, 0, .AHEAD. ) ;
#170 = APPROVAL_DATE_TIME ( #2, #151 ) ;
#171 = CLOSED_SHELL ( 'NONE', ( #135, #29, #50 ) ) ;
#172 = EDGE_CURVE ( 'NONE', #106, #106, #158, .T. ) ;
#173 = PERSON_AND_ORGANIZATION ( #1, #162 ) ;
#174 = DIRECTION ( 'NONE',  ( -3.491481338843133355E-15, 1.224646799147353207E-16, -1.000000000000000000 ) ) ;
#175 = DIRECTION ( 'NONE',  ( -3.491481338843133355E-15, 1.224646799147353207E-16, -1.000000000000000000 ) ) ;
#176 = AXIS2_PLACEMENT_3D ( 'NONE', #104, #174, #21 ) ;
#177 = CONICAL_SURFACE ( 'NONE', #220, 0.7499999999999974465, 0.5235987755982906000 ) ;
#178 = PLANE ( 'NONE',  #95 ) ;
#179 = CYLINDRICAL_SURFACE ( 'NONE', #39, 0.4899999999999983813 ) ;
#180 = CARTESIAN_POINT ( 'NONE',  ( 2.793185071074506684E-14, 0.4899999999999982703, 8.000000000000000000 ) ) ;
#181 = ORIENTED_EDGE ( 'NONE', *, *, #102, .T. ) ;
#182 = AXIS2_PLACEMENT_3D ( 'NONE', #133, #209, #49 ) ;
#183 =( NAMED_UNIT ( * ) PLANE_ANGLE_UNIT ( ) SI_UNIT ( $, .RADIAN. ) );
#184 = CC_DESIGN_PERSON_AND_ORGANIZATION_ASSIGNMENT ( #132, #150, ( #167 ) ) ;
#185 = DIRECTION ( 'NONE',  ( 0.0000000000000000000, 1.000000000000000000, 0.0000000000000000000 ) ) ;
#186 = CC_DESIGN_APPROVAL ( #198, ( #222 ) ) ;
#187 = PERSON_AND_ORGANIZATION ( #1, #162 ) ;
#188 = EDGE_CURVE ( 'NONE', #28, #28, #101, .T. ) ;
#189 = EDGE_LOOP ( 'NONE', ( #8 ) ) ;
#190 = PRODUCT ( '55350', '55350', '', ( #10 ) ) ;
#191 = EDGE_LOOP ( 'NONE', ( #204 ) ) ;
#192 = EDGE_LOOP ( 'NONE', ( #54 ) ) ;
#193 = CIRCLE ( 'NONE', #87, 0.4899999999999974931 ) ;
#194 = DIRECTION ( 'NONE',  ( 0.0000000000000000000, 1.000000000000000000, 0.0000000000000000000 ) ) ;
#195 = CARTESIAN_POINT ( 'NONE',  ( 2.950418070960936909E-14, -1.034867351731578357E-15, 8.450333209967913817 ) ) ;
#196 = EDGE_LOOP ( 'NONE', ( #57 ) ) ;
#197 = ADVANCED_BREP_SHAPE_REPRESENTATION ( '55350', ( #46, #113, #63 ), #145 ) ;
#198 = APPROVAL ( #218, 'UNSPECIFIED' ) ;
#199 = FACE_OUTER_BOUND ( 'NONE', #77, .T. ) ;
#200 = CLOSED_SHELL ( 'NONE', ( #94, #108, #128, #164, #44 ) ) ;
#201 = CARTESIAN_POINT ( 'NONE',  ( 0.0000000000000000000, 0.0000000000000000000, 0.0000000000000000000 ) ) ;
#202 = CC_DESIGN_PERSON_AND_ORGANIZATION_ASSIGNMENT ( #187, #83, ( #167 ) ) ;
#203 = APPROVAL_STATUS ( 'not_yet_approved' ) ;
#204 = ORIENTED_EDGE ( 'NONE', *, *, #216, .F. ) ;
#205 = DESIGN_CONTEXT ( 'detailed design', #210, 'design' ) ;
#206 = APPROVAL_DATE_TIME ( #219, #198 ) ;
#207 =( LENGTH_UNIT ( ) NAMED_UNIT ( * ) SI_UNIT ( .MILLI., .METRE. ) );
#208 = CIRCLE ( 'NONE', #78, 0.7499999999999998890 ) ;
#209 = DIRECTION ( 'NONE',  ( 3.491481338843133355E-15, -1.224646799147353207E-16, 1.000000000000000000 ) ) ;
#210 = APPLICATION_CONTEXT ( 'configuration controlled 3d designs of mechanical parts and assemblies' ) ;
#211 = CYLINDRICAL_SURFACE ( 'NONE', #17, 0.7499999999999986677 ) ;
#212 = CALENDAR_DATE ( 2021, 8, 10 ) ;
#213 = DIRECTION ( 'NONE',  ( -4.275831445896958607E-31, -1.000000000000000000, -1.224646799147353207E-16 ) ) ;
#214 = ORIENTED_EDGE ( 'NONE', *, *, #79, .T. ) ;
#215 = CIRCLE ( 'NONE', #176, 0.4899999999999992140 ) ;
#216 = EDGE_CURVE ( 'NONE', #14, #14, #115, .T. ) ;
#217 = DIRECTION ( 'NONE',  ( 3.491481338843133355E-15, -1.224646799147353207E-16, 1.000000000000000000 ) ) ;
#218 = APPROVAL_STATUS ( 'not_yet_approved' ) ;
#219 = DATE_AND_TIME ( #129, #149 ) ;
#220 = AXIS2_PLACEMENT_3D ( 'NONE', #195, #160, #20 ) ;
#221 = DIRECTION ( 'NONE',  ( -3.491481338843133355E-15, 1.224646799147353207E-16, -1.000000000000000000 ) ) ;
#222 = PRODUCT_DEFINITION ( 'UNKNOWN', '', #167, #205 ) ;
#223 = PERSON_AND_ORGANIZATION ( #1, #162 ) ;
ENDSEC;
END-ISO-10303-21;
