ISO-10303-21;
HEADER;
FILE_DESCRIPTION (( 'STEP AP203' ),
    '1' );
FILE_NAME ('55348.step',
    '2021-10-08T05:14:51',
    ( '' ),
    ( '' ),
    'SwSTEP 2.0',
    'SolidWorks 2019',
    '' );
FILE_SCHEMA (( 'CONFIG_CONTROL_DESIGN' ));
ENDSEC;

DATA;
#1 = LOCAL_TIME ( 7, 14, 51.00000000000000000, #115 ) ;
#2 = DIRECTION ( 'NONE',  ( 4.012354050806760920E-31, 1.000000000000000000, 1.129377263005739291E-16 ) ) ;
#3 = APPROVAL_DATE_TIME ( #214, #117 ) ;
#4 = COORDINATED_UNIVERSAL_TIME_OFFSET ( 1, 0, .AHEAD. ) ;
#5 = APPROVAL ( #196, 'UNSPECIFIED' ) ;
#6 = CIRCLE ( 'NONE', #121, 0.4799999999999978728 ) ;
#7 = CYLINDRICAL_SURFACE ( 'NONE', #25, 0.7499999999999986677 ) ;
#8 = DIRECTION ( 'NONE',  ( -3.491481338843133355E-15, 1.224646799147353207E-16, -1.000000000000000000 ) ) ;
#9 = CYLINDRICAL_SURFACE ( 'NONE', #42, 0.4799999999999977618 ) ;
#10 = DIRECTION ( 'NONE',  ( 0.0000000000000000000, 1.000000000000000000, 0.0000000000000000000 ) ) ;
#11 = CIRCLE ( 'NONE', #107, 0.7499999999999974465 ) ;
#12 = EDGE_CURVE ( 'NONE', #209, #209, #83, .T. ) ;
#13 = CARTESIAN_POINT ( 'NONE',  ( 2.956465494033490025E-14, 0.7499999999999963363, 8.467653718043598232 ) ) ;
#14 = CARTESIAN_POINT ( 'NONE',  ( 2.793185071074506684E-14, 3.599423478388427742E-33, 8.000000000000000000 ) ) ;
#15 = VERTEX_POINT ( 'NONE', #111 ) ;
#16 = PERSON_AND_ORGANIZATION ( #31, #55 ) ;
#17 = CALENDAR_DATE ( 2021, 8, 10 ) ;
#18 = CALENDAR_DATE ( 2021, 8, 10 ) ;
#19 = PERSON_AND_ORGANIZATION_ROLE ( 'design_owner' ) ;
#20 = ADVANCED_FACE ( 'NONE', ( #74, #222 ), #221, .T. ) ;
#21 = EDGE_LOOP ( 'NONE', ( #57 ) ) ;
#22 = CARTESIAN_POINT ( 'NONE',  ( 1.047444401652940007E-13, -3.673940397442059178E-15, 30.00000000000000000 ) ) ;
#23 = ORIENTED_EDGE ( 'NONE', *, *, #215, .F. ) ;
#24 = CC_DESIGN_DATE_AND_TIME_ASSIGNMENT ( #171, #177, ( #208 ) ) ;
#25 = AXIS2_PLACEMENT_3D ( 'NONE', #71, #204, #54 ) ;
#26 = PLANE ( 'NONE',  #29 ) ;
#27 = EDGE_CURVE ( 'NONE', #189, #189, #190, .T. ) ;
#28 = DIRECTION ( 'NONE',  ( -3.491481338843133355E-15, 1.224646799147353207E-16, -1.000000000000000000 ) ) ;
#29 = AXIS2_PLACEMENT_3D ( 'NONE', #92, #131, #152 ) ;
#30 = DIRECTION ( 'NONE',  ( -4.275831445896958607E-31, -1.000000000000000000, -1.224646799147353207E-16 ) ) ;
#31 = PERSON ( 'UNSPECIFIED', 'UNSPECIFIED', 'UNSPECIFIED', ('UNSPECIFIED'), ('UNSPECIFIED'), ('UNSPECIFIED') ) ;
#32 = APPLICATION_PROTOCOL_DEFINITION ( 'international standard', 'config_control_design', 1994, #213 ) ;
#33 = CLOSED_SHELL ( 'NONE', ( #145, #20, #130, #103, #197 ) ) ;
#34 = DATE_TIME_ROLE ( 'creation_date' ) ;
#35 = MANIFOLD_SOLID_BREP ( 'Corps-Déplacer/Copier1[1]', #33 ) ;
#36 = CALENDAR_DATE ( 2021, 8, 10 ) ;
#37 = DIRECTION ( 'NONE',  ( -3.491481338843133355E-15, 1.224646799147353207E-16, -1.000000000000000000 ) ) ;
#38 = LOCAL_TIME ( 7, 14, 51.00000000000000000, #198 ) ;
#39 = FACE_OUTER_BOUND ( 'NONE', #183, .T. ) ;
#40 = EDGE_LOOP ( 'NONE', ( #205 ) ) ;
#41 = DIRECTION ( 'NONE',  ( -3.491481338843133355E-15, 1.224646799147353207E-16, -1.000000000000000000 ) ) ;
#42 = AXIS2_PLACEMENT_3D ( 'NONE', #43, #165, #187 ) ;
#43 = CARTESIAN_POINT ( 'NONE',  ( 0.0000000000000000000, 0.0000000000000000000, 0.0000000000000000000 ) ) ;
#44 = CARTESIAN_POINT ( 'NONE',  ( 2.793185071074506684E-14, 3.599423478388427742E-33, 8.000000000000000000 ) ) ;
#45 = CARTESIAN_POINT ( 'NONE',  ( 0.0000000000000000000, 0.0000000000000000000, 0.0000000000000000000 ) ) ;
#46 = CARTESIAN_POINT ( 'NONE',  ( 2.793185071074506684E-14, 0.4799999999999969291, 8.000000000000000000 ) ) ;
#47 = COORDINATED_UNIVERSAL_TIME_OFFSET ( 1, 0, .AHEAD. ) ;
#48 = DATE_AND_TIME ( #216, #38 ) ;
#49 = CONICAL_SURFACE ( 'NONE', #68, 0.5500000000000000444, 0.7853981633974510546 ) ;
#50 = APPROVAL_DATE_TIME ( #99, #206 ) ;
#51 = LOCAL_TIME ( 7, 14, 51.00000000000000000, #69 ) ;
#52 = DIRECTION ( 'NONE',  ( 3.491481338843133355E-15, -1.224646799147353207E-16, 1.000000000000000000 ) ) ;
#53 = FACE_OUTER_BOUND ( 'NONE', #184, .T. ) ;
#54 = DIRECTION ( 'NONE',  ( 4.275831445896959482E-31, 1.000000000000000000, 1.224646799147353207E-16 ) ) ;
#55 = ORGANIZATION ( 'UNSPECIFIED', 'UNSPECIFIED', '' ) ;
#56 = FACE_BOUND ( 'NONE', #73, .T. ) ;
#57 = ORIENTED_EDGE ( 'NONE', *, *, #193, .F. ) ;
#58 = FACE_OUTER_BOUND ( 'NONE', #144, .T. ) ;
#59 = EDGE_CURVE ( 'NONE', #113, #113, #93, .T. ) ;
#60 = FACE_OUTER_BOUND ( 'NONE', #21, .T. ) ;
#61 = FACE_OUTER_BOUND ( 'NONE', #124, .T. ) ;
#62 = CC_DESIGN_PERSON_AND_ORGANIZATION_ASSIGNMENT ( #217, #101, ( #208 ) ) ;
#63 = CIRCLE ( 'NONE', #161, 0.4799999999999977063 ) ;
#64 = APPROVAL_STATUS ( 'not_yet_approved' ) ;
#65 = PRODUCT_DEFINITION ( 'UNKNOWN', '', #167, #182 ) ;
#66 = DATE_AND_TIME ( #136, #98 ) ;
#67 = CC_DESIGN_APPROVAL ( #206, ( #167 ) ) ;
#68 = AXIS2_PLACEMENT_3D ( 'NONE', #22, #8, #123 ) ;
#69 = COORDINATED_UNIVERSAL_TIME_OFFSET ( 1, 0, .AHEAD. ) ;
#70 = PERSON_AND_ORGANIZATION ( #31, #55 ) ;
#71 = CARTESIAN_POINT ( 'NONE',  ( 0.0000000000000000000, 0.0000000000000000000, 0.0000000000000000000 ) ) ;
#72 = ORIENTED_EDGE ( 'NONE', *, *, #27, .T. ) ;
#73 = EDGE_LOOP ( 'NONE', ( #202 ) ) ;
#74 = FACE_BOUND ( 'NONE', #40, .T. ) ;
#75 = EDGE_LOOP ( 'NONE', ( #85 ) ) ;
#76 = FACE_OUTER_BOUND ( 'NONE', #162, .T. ) ;
#77 =( NAMED_UNIT ( * ) PLANE_ANGLE_UNIT ( ) SI_UNIT ( $, .RADIAN. ) );
#78 = PLANE ( 'NONE',  #141 ) ;
#79 = MECHANICAL_CONTEXT ( 'NONE', #159, 'mechanical' ) ;
#80 = APPROVAL_ROLE ( '' ) ;
#81 = AXIS2_PLACEMENT_3D ( 'NONE', #88, #147, #163 ) ;
#82 = DIRECTION ( 'NONE',  ( 0.0000000000000000000, 1.000000000000000000, 0.0000000000000000000 ) ) ;
#83 = CIRCLE ( 'NONE', #81, 0.5500000000000000444 ) ;
#84 = LOCAL_TIME ( 7, 14, 51.00000000000000000, #4 ) ;
#85 = ORIENTED_EDGE ( 'NONE', *, *, #215, .T. ) ;
#86 = CC_DESIGN_PERSON_AND_ORGANIZATION_ASSIGNMENT ( #16, #195, ( #167 ) ) ;
#87 = ORIENTED_EDGE ( 'NONE', *, *, #170, .T. ) ;
#88 = CARTESIAN_POINT ( 'NONE',  ( 1.047444401652940007E-13, -3.673940397442059178E-15, 30.00000000000000000 ) ) ;
#89 =( GEOMETRIC_REPRESENTATION_CONTEXT ( 3 ) GLOBAL_UNCERTAINTY_ASSIGNED_CONTEXT ( ( #122 ) ) GLOBAL_UNIT_ASSIGNED_CONTEXT ( ( #151, #77, #91 ) ) REPRESENTATION_CONTEXT ( 'NONE', 'WORKASPACE' ) );
#90 = ORIENTED_EDGE ( 'NONE', *, *, #170, .F. ) ;
#91 =( NAMED_UNIT ( * ) SI_UNIT ( $, .STERADIAN. ) SOLID_ANGLE_UNIT ( ) );
#92 = CARTESIAN_POINT ( 'NONE',  ( 1.047444401652940007E-13, 4.124339402320052999E-33, 30.00000000000000000 ) ) ;
#93 = CIRCLE ( 'NONE', #102, 0.7499999999999998890 ) ;
#94 = VERTEX_POINT ( 'NONE', #13 ) ;
#95 = CARTESIAN_POINT ( 'NONE',  ( 2.793185071074506684E-14, -9.797174393178825657E-16, 8.000000000000000000 ) ) ;
#96 = FACE_OUTER_BOUND ( 'NONE', #146, .T. ) ;
#97 = PERSON_AND_ORGANIZATION ( #31, #55 ) ;
#98 = LOCAL_TIME ( 7, 14, 51.00000000000000000, #47 ) ;
#99 = DATE_AND_TIME ( #18, #51 ) ;
#100 = PERSON_AND_ORGANIZATION ( #31, #55 ) ;
#101 = PERSON_AND_ORGANIZATION_ROLE ( 'classification_officer' ) ;
#102 = AXIS2_PLACEMENT_3D ( 'NONE', #104, #178, #82 ) ;
#103 = ADVANCED_FACE ( 'NONE', ( #53, #56 ), #49, .T. ) ;
#104 = CARTESIAN_POINT ( 'NONE',  ( 1.040461438975253740E-13, -3.649447461459112464E-15, 29.80000000000000071 ) ) ;
#105 = CC_DESIGN_PERSON_AND_ORGANIZATION_ASSIGNMENT ( #116, #155, ( #167 ) ) ;
#106 = EDGE_LOOP ( 'NONE', ( #72 ) ) ;
#107 = AXIS2_PLACEMENT_3D ( 'NONE', #186, #28, #112 ) ;
#108 = PRODUCT_DEFINITION_SHAPE ( 'NONE', 'NONE',  #65 ) ;
#109 = ORIENTED_EDGE ( 'NONE', *, *, #59, .T. ) ;
#110 = CARTESIAN_POINT ( 'NONE',  ( 2.793185071074506684E-14, 0.4799999999999969291, 8.000000000000000000 ) ) ;
#111 = CARTESIAN_POINT ( 'NONE',  ( 1.006988946518627464E-15, 0.4799999999999976508, 0.2884130971332308224 ) ) ;
#112 = DIRECTION ( 'NONE',  ( 0.0000000000000000000, 1.000000000000000000, 0.0000000000000000000 ) ) ;
#113 = VERTEX_POINT ( 'NONE', #194 ) ;
#114 = APPROVAL_STATUS ( 'not_yet_approved' ) ;
#115 = COORDINATED_UNIVERSAL_TIME_OFFSET ( 1, 0, .AHEAD. ) ;
#116 = PERSON_AND_ORGANIZATION ( #31, #55 ) ;
#117 = APPROVAL ( #64, 'UNSPECIFIED' ) ;
#118 = APPROVAL_DATE_TIME ( #66, #5 ) ;
#119 = PLANE ( 'NONE',  #203 ) ;
#120 = CARTESIAN_POINT ( 'NONE',  ( 2.956465494033490025E-14, -1.036988502209027854E-15, 8.467653718043598232 ) ) ;
#121 = AXIS2_PLACEMENT_3D ( 'NONE', #95, #41, #10 ) ;
#122 = UNCERTAINTY_MEASURE_WITH_UNIT (LENGTH_MEASURE( 1.000000000000000082E-05 ), #151, 'distance_accuracy_value', 'NONE');
#123 = DIRECTION ( 'NONE',  ( 0.0000000000000000000, 1.000000000000000000, 0.0000000000000000000 ) ) ;
#124 = EDGE_LOOP ( 'NONE', ( #90 ) ) ;
#125 = CC_DESIGN_PERSON_AND_ORGANIZATION_ASSIGNMENT ( #97, #156, ( #65 ) ) ;
#126 = DIRECTION ( 'NONE',  ( 3.491481338843133355E-15, -1.224646799147353207E-16, 1.000000000000000000 ) ) ;
#127 = APPLICATION_PROTOCOL_DEFINITION ( 'international standard', 'config_control_design', 1994, #159 ) ;
#128 = ADVANCED_BREP_SHAPE_REPRESENTATION ( '55348', ( #35, #191, #132 ), #89 ) ;
#129 = DIRECTION ( 'NONE',  ( -3.491481338843133355E-15, 1.224646799147353207E-16, -1.000000000000000000 ) ) ;
#130 = ADVANCED_FACE ( 'NONE', ( #39, #160 ), #7, .T. ) ;
#131 = DIRECTION ( 'NONE',  ( -3.491481338843133355E-15, 1.224646799147353207E-16, -1.000000000000000000 ) ) ;
#132 = AXIS2_PLACEMENT_3D ( 'NONE', #45, #172, #139 ) ;
#133 = CARTESIAN_POINT ( 'NONE',  ( 1.047444401652940007E-13, 0.5499999999999963807, 30.00000000000000000 ) ) ;
#134 = CC_DESIGN_DATE_AND_TIME_ASSIGNMENT ( #48, #34, ( #65 ) ) ;
#135 = PERSON_AND_ORGANIZATION ( #31, #55 ) ;
#136 = CALENDAR_DATE ( 2021, 8, 10 ) ;
#137 = APPROVAL_ROLE ( '' ) ;
#138 = APPROVAL_PERSON_ORGANIZATION ( #135, #5, #80 ) ;
#139 = DIRECTION ( 'NONE',  ( 1.000000000000000000, 0.0000000000000000000, 0.0000000000000000000 ) ) ;
#140 = CLOSED_SHELL ( 'NONE', ( #157, #201, #148 ) ) ;
#141 = AXIS2_PLACEMENT_3D ( 'NONE', #44, #192, #30 ) ;
#142 = FACE_OUTER_BOUND ( 'NONE', #106, .T. ) ;
#143 = ORIENTED_EDGE ( 'NONE', *, *, #193, .T. ) ;
#144 = EDGE_LOOP ( 'NONE', ( #143 ) ) ;
#145 = ADVANCED_FACE ( 'NONE', ( #142 ), #119, .F. ) ;
#146 = EDGE_LOOP ( 'NONE', ( #87 ) ) ;
#147 = DIRECTION ( 'NONE',  ( -3.491481338843133355E-15, 1.224646799147353207E-16, -1.000000000000000000 ) ) ;
#148 = ADVANCED_FACE ( 'NONE', ( #60 ), #78, .T. ) ;
#149 = AXIS2_PLACEMENT_3D ( 'NONE', #218, #37, #220 ) ;
#150 = APPROVAL_PERSON_ORGANIZATION ( #174, #206, #137 ) ;
#151 =( LENGTH_UNIT ( ) NAMED_UNIT ( * ) SI_UNIT ( .MILLI., .METRE. ) );
#152 = DIRECTION ( 'NONE',  ( 4.275831445896958607E-31, 1.000000000000000000, 1.224646799147353207E-16 ) ) ;
#153 = CC_DESIGN_APPROVAL ( #117, ( #208 ) ) ;
#154 = APPROVAL_ROLE ( '' ) ;
#155 = PERSON_AND_ORGANIZATION_ROLE ( 'creator' ) ;
#156 = PERSON_AND_ORGANIZATION_ROLE ( 'creator' ) ;
#157 = ADVANCED_FACE ( 'NONE', ( #96 ), #164, .T. ) ;
#158 = SHAPE_DEFINITION_REPRESENTATION ( #108, #128 ) ;
#159 = APPLICATION_CONTEXT ( 'configuration controlled 3d designs of mechanical parts and assemblies' ) ;
#160 = FACE_OUTER_BOUND ( 'NONE', #181, .T. ) ;
#161 = AXIS2_PLACEMENT_3D ( 'NONE', #210, #129, #2 ) ;
#162 = EDGE_LOOP ( 'NONE', ( #179 ) ) ;
#163 = DIRECTION ( 'NONE',  ( 0.0000000000000000000, 1.000000000000000000, 0.0000000000000000000 ) ) ;
#164 = CONICAL_SURFACE ( 'NONE', #176, 0.4799999999999977063, 1.029744258676649649 ) ;
#165 = DIRECTION ( 'NONE',  ( -3.491481338843133355E-15, 1.224646799147353207E-16, -1.000000000000000000 ) ) ;
#166 = CC_DESIGN_APPROVAL ( #5, ( #65 ) ) ;
#167 = PRODUCT_DEFINITION_FORMATION_WITH_SPECIFIED_SOURCE ( 'ANY', '', #188, .NOT_KNOWN. ) ;
#168 = VERTEX_POINT ( 'NONE', #110 ) ;
#169 = DIRECTION ( 'NONE',  ( -4.275831445896958607E-31, -1.000000000000000000, -1.224646799147353207E-16 ) ) ;
#170 = EDGE_CURVE ( 'NONE', #15, #15, #63, .T. ) ;
#171 = DATE_AND_TIME ( #17, #84 ) ;
#172 = DIRECTION ( 'NONE',  ( 0.0000000000000000000, 0.0000000000000000000, 1.000000000000000000 ) ) ;
#173 = PRODUCT_RELATED_PRODUCT_CATEGORY ( 'detail', '', ( #188 ) ) ;
#174 = PERSON_AND_ORGANIZATION ( #31, #55 ) ;
#175 = AXIS2_PLACEMENT_3D ( 'NONE', #120, #52, #199 ) ;
#176 = AXIS2_PLACEMENT_3D ( 'NONE', #223, #126, #207 ) ;
#177 = DATE_TIME_ROLE ( 'classification_date' ) ;
#178 = DIRECTION ( 'NONE',  ( -3.491481338843133355E-15, 1.224646799147353207E-16, -1.000000000000000000 ) ) ;
#179 = ORIENTED_EDGE ( 'NONE', *, *, #12, .F. ) ;
#180 = APPROVAL_PERSON_ORGANIZATION ( #100, #117, #154 ) ;
#181 = EDGE_LOOP ( 'NONE', ( #109 ) ) ;
#182 = DESIGN_CONTEXT ( 'detailed design', #213, 'design' ) ;
#183 = EDGE_LOOP ( 'NONE', ( #23 ) ) ;
#184 = EDGE_LOOP ( 'NONE', ( #200 ) ) ;
#185 = CC_DESIGN_SECURITY_CLASSIFICATION ( #208, ( #167 ) ) ;
#186 = CARTESIAN_POINT ( 'NONE',  ( 2.956465494033490025E-14, -1.036988502209027854E-15, 8.467653718043598232 ) ) ;
#187 = DIRECTION ( 'NONE',  ( 4.275831445896959482E-31, 1.000000000000000000, 1.224646799147353454E-16 ) ) ;
#188 = PRODUCT ( '55348', '55348', '', ( #79 ) ) ;
#189 = VERTEX_POINT ( 'NONE', #46 ) ;
#190 = CIRCLE ( 'NONE', #149, 0.4799999999999978728 ) ;
#191 = MANIFOLD_SOLID_BREP ( 'Corps-Déplacer/Copier1[2]', #140 ) ;
#192 = DIRECTION ( 'NONE',  ( 3.491481338843133355E-15, -1.224646799147353207E-16, 1.000000000000000000 ) ) ;
#193 = EDGE_CURVE ( 'NONE', #168, #168, #6, .T. ) ;
#194 = CARTESIAN_POINT ( 'NONE',  ( 1.040461438975253740E-13, 0.7499999999999962252, 29.80000000000000071 ) ) ;
#195 = PERSON_AND_ORGANIZATION_ROLE ( 'design_supplier' ) ;
#196 = APPROVAL_STATUS ( 'not_yet_approved' ) ;
#197 = ADVANCED_FACE ( 'NONE', ( #76 ), #26, .F. ) ;
#198 = COORDINATED_UNIVERSAL_TIME_OFFSET ( 1, 0, .AHEAD. ) ;
#199 = DIRECTION ( 'NONE',  ( 0.0000000000000000000, -1.000000000000000000, 0.0000000000000000000 ) ) ;
#200 = ORIENTED_EDGE ( 'NONE', *, *, #59, .F. ) ;
#201 = ADVANCED_FACE ( 'NONE', ( #61, #58 ), #9, .T. ) ;
#202 = ORIENTED_EDGE ( 'NONE', *, *, #12, .T. ) ;
#203 = AXIS2_PLACEMENT_3D ( 'NONE', #14, #211, #169 ) ;
#204 = DIRECTION ( 'NONE',  ( -3.491481338843133355E-15, 1.224646799147353207E-16, -1.000000000000000000 ) ) ;
#205 = ORIENTED_EDGE ( 'NONE', *, *, #27, .F. ) ;
#206 = APPROVAL ( #114, 'UNSPECIFIED' ) ;
#207 = DIRECTION ( 'NONE',  ( -4.012354050806760920E-31, -1.000000000000000000, -1.129377263005739291E-16 ) ) ;
#208 = SECURITY_CLASSIFICATION ( '', '', #212 ) ;
#209 = VERTEX_POINT ( 'NONE', #133 ) ;
#210 = CARTESIAN_POINT ( 'NONE',  ( 1.006988946518627266E-15, -3.532041762363856909E-17, 0.2884130971332307669 ) ) ;
#211 = DIRECTION ( 'NONE',  ( 3.491481338843133355E-15, -1.224646799147353207E-16, 1.000000000000000000 ) ) ;
#212 = SECURITY_CLASSIFICATION_LEVEL ( 'unclassified' ) ;
#213 = APPLICATION_CONTEXT ( 'configuration controlled 3d designs of mechanical parts and assemblies' ) ;
#214 = DATE_AND_TIME ( #36, #1 ) ;
#215 = EDGE_CURVE ( 'NONE', #94, #94, #11, .T. ) ;
#216 = CALENDAR_DATE ( 2021, 8, 10 ) ;
#217 = PERSON_AND_ORGANIZATION ( #31, #55 ) ;
#218 = CARTESIAN_POINT ( 'NONE',  ( 2.793185071074506684E-14, -9.797174393178825657E-16, 8.000000000000000000 ) ) ;
#219 = CC_DESIGN_PERSON_AND_ORGANIZATION_ASSIGNMENT ( #70, #19, ( #188 ) ) ;
#220 = DIRECTION ( 'NONE',  ( 0.0000000000000000000, 1.000000000000000000, 0.0000000000000000000 ) ) ;
#221 = CONICAL_SURFACE ( 'NONE', #175, 0.7499999999999974465, 0.5235987755982963732 ) ;
#222 = FACE_OUTER_BOUND ( 'NONE', #75, .T. ) ;
#223 = CARTESIAN_POINT ( 'NONE',  ( 1.006988946518627266E-15, -3.532041762363856909E-17, 0.2884130971332307669 ) ) ;
ENDSEC;
END-ISO-10303-21;
