ISO-10303-21;
HEADER;
FILE_DESCRIPTION (( 'STEP AP203' ),
    '1' );
FILE_NAME ('55347.step',
    '2021-10-08T05:14:51',
    ( '' ),
    ( '' ),
    'SwSTEP 2.0',
    'SolidWorks 2019',
    '' );
FILE_SCHEMA (( 'CONFIG_CONTROL_DESIGN' ));
ENDSEC;

DATA;
#1 = ORIENTED_EDGE ( 'NONE', *, *, #58, .T. ) ;
#2 = ORIENTED_EDGE ( 'NONE', *, *, #22, .T. ) ;
#3 = EDGE_LOOP ( 'NONE', ( #63 ) ) ;
#4 = ADVANCED_FACE ( 'NONE', ( #147, #210 ), #216, .T. ) ;
#5 = DIRECTION ( 'NONE',  ( -3.491481338843133355E-15, 1.224646799147353207E-16, -1.000000000000000000 ) ) ;
#6 = FACE_OUTER_BOUND ( 'NONE', #79, .T. ) ;
#7 = APPROVAL_PERSON_ORGANIZATION ( #111, #108, #179 ) ;
#8 = DIRECTION ( 'NONE',  ( 0.0000000000000000000, -1.000000000000000000, 0.0000000000000000000 ) ) ;
#9 = DIRECTION ( 'NONE',  ( -3.491481338843133355E-15, 1.224646799147353207E-16, -1.000000000000000000 ) ) ;
#10 = CC_DESIGN_PERSON_AND_ORGANIZATION_ASSIGNMENT ( #146, #175, ( #219 ) ) ;
#11 = DIRECTION ( 'NONE',  ( -3.491481338843133355E-15, 1.224646799147353207E-16, -1.000000000000000000 ) ) ;
#12 = AXIS2_PLACEMENT_3D ( 'NONE', #70, #102, #46 ) ;
#13 = COORDINATED_UNIVERSAL_TIME_OFFSET ( 1, 0, .AHEAD. ) ;
#14 = PERSON_AND_ORGANIZATION ( #156, #19 ) ;
#15 = AXIS2_PLACEMENT_3D ( 'NONE', #121, #5, #45 ) ;
#16 = APPROVAL_DATE_TIME ( #208, #178 ) ;
#17 = EDGE_LOOP ( 'NONE', ( #117 ) ) ;
#18 = EDGE_LOOP ( 'NONE', ( #38 ) ) ;
#19 = ORGANIZATION ( 'UNSPECIFIED', 'UNSPECIFIED', '' ) ;
#20 = CARTESIAN_POINT ( 'NONE',  ( 1.047444401652940007E-13, -3.673940397442059178E-15, 30.00000000000000000 ) ) ;
#21 = PRODUCT_RELATED_PRODUCT_CATEGORY ( 'detail', '', ( #219 ) ) ;
#22 = EDGE_CURVE ( 'NONE', #140, #140, #106, .T. ) ;
#23 = DIRECTION ( 'NONE',  ( 4.275831445896959482E-31, 1.000000000000000000, 1.224646799147353454E-16 ) ) ;
#24 = PLANE ( 'NONE',  #80 ) ;
#25 = SECURITY_CLASSIFICATION ( '', '', #191 ) ;
#26 = DIRECTION ( 'NONE',  ( -4.275831445896958607E-31, -1.000000000000000000, -1.224646799147353207E-16 ) ) ;
#27 = DIRECTION ( 'NONE',  ( 3.491481338843133355E-15, -1.224646799147353207E-16, 1.000000000000000000 ) ) ;
#28 = EDGE_CURVE ( 'NONE', #203, #203, #127, .T. ) ;
#29 = APPROVAL_STATUS ( 'not_yet_approved' ) ;
#30 = APPLICATION_CONTEXT ( 'configuration controlled 3d designs of mechanical parts and assemblies' ) ;
#31 = APPROVAL_PERSON_ORGANIZATION ( #190, #138, #92 ) ;
#32 = COORDINATED_UNIVERSAL_TIME_OFFSET ( 1, 0, .AHEAD. ) ;
#33 = CC_DESIGN_PERSON_AND_ORGANIZATION_ASSIGNMENT ( #158, #221, ( #25 ) ) ;
#34 = UNCERTAINTY_MEASURE_WITH_UNIT (LENGTH_MEASURE( 1.000000000000000082E-05 ), #143, 'distance_accuracy_value', 'NONE');
#35 = CALENDAR_DATE ( 2021, 8, 10 ) ;
#36 = AXIS2_PLACEMENT_3D ( 'NONE', #168, #87, #151 ) ;
#37 = CALENDAR_DATE ( 2021, 8, 10 ) ;
#38 = ORIENTED_EDGE ( 'NONE', *, *, #52, .T. ) ;
#39 = SHAPE_DEFINITION_REPRESENTATION ( #181, #135 ) ;
#40 = EDGE_LOOP ( 'NONE', ( #214 ) ) ;
#41 = CC_DESIGN_PERSON_AND_ORGANIZATION_ASSIGNMENT ( #89, #159, ( #114 ) ) ;
#42 = CONICAL_SURFACE ( 'NONE', #71, 0.5500000000000000444, 0.7853981633974510546 ) ;
#43 = ORIENTED_EDGE ( 'NONE', *, *, #211, .F. ) ;
#44 = CALENDAR_DATE ( 2021, 8, 10 ) ;
#45 = DIRECTION ( 'NONE',  ( 0.0000000000000000000, 1.000000000000000000, 0.0000000000000000000 ) ) ;
#46 = DIRECTION ( 'NONE',  ( 4.275831445896959482E-31, 1.000000000000000000, 1.224646799147353207E-16 ) ) ;
#47 = CARTESIAN_POINT ( 'NONE',  ( 0.0000000000000000000, 0.0000000000000000000, 0.0000000000000000000 ) ) ;
#48 = FACE_OUTER_BOUND ( 'NONE', #59, .T. ) ;
#49 = CARTESIAN_POINT ( 'NONE',  ( 2.645255885073885842E-14, -9.278308655244911073E-16, 7.576313972081444525 ) ) ;
#50 = COORDINATED_UNIVERSAL_TIME_OFFSET ( 1, 0, .AHEAD. ) ;
#51 = CALENDAR_DATE ( 2021, 8, 10 ) ;
#52 = EDGE_CURVE ( 'NONE', #184, #184, #55, .T. ) ;
#53 = APPROVAL_ROLE ( '' ) ;
#54 = VERTEX_POINT ( 'NONE', #90 ) ;
#55 = CIRCLE ( 'NONE', #164, 0.4749999999999988676 ) ;
#56 = MECHANICAL_CONTEXT ( 'NONE', #73, 'mechanical' ) ;
#57 = AXIS2_PLACEMENT_3D ( 'NONE', #154, #134, #8 ) ;
#58 = EDGE_CURVE ( 'NONE', #54, #54, #212, .T. ) ;
#59 = EDGE_LOOP ( 'NONE', ( #94 ) ) ;
#60 = DATE_TIME_ROLE ( 'classification_date' ) ;
#61 = AXIS2_PLACEMENT_3D ( 'NONE', #76, #194, #91 ) ;
#62 = APPROVAL_STATUS ( 'not_yet_approved' ) ;
#63 = ORIENTED_EDGE ( 'NONE', *, *, #58, .F. ) ;
#64 = ORIENTED_EDGE ( 'NONE', *, *, #22, .F. ) ;
#65 = EDGE_LOOP ( 'NONE', ( #1 ) ) ;
#66 = FACE_OUTER_BOUND ( 'NONE', #40, .T. ) ;
#67 = CONICAL_SURFACE ( 'NONE', #196, 0.4749999999999976463, 1.029744258676649649 ) ;
#68 = PLANE ( 'NONE',  #122 ) ;
#69 = FACE_OUTER_BOUND ( 'NONE', #81, .T. ) ;
#70 = CARTESIAN_POINT ( 'NONE',  ( 0.0000000000000000000, 0.0000000000000000000, 0.0000000000000000000 ) ) ;
#71 = AXIS2_PLACEMENT_3D ( 'NONE', #101, #201, #202 ) ;
#72 = PERSON_AND_ORGANIZATION_ROLE ( 'design_supplier' ) ;
#73 = APPLICATION_CONTEXT ( 'configuration controlled 3d designs of mechanical parts and assemblies' ) ;
#74 = CARTESIAN_POINT ( 'NONE',  ( 2.478951750578624367E-14, 0.4749999999999979794, 7.099999999999999645 ) ) ;
#75 = APPROVAL_PERSON_ORGANIZATION ( #174, #178, #53 ) ;
#76 = CARTESIAN_POINT ( 'NONE',  ( 0.0000000000000000000, 0.0000000000000000000, 0.0000000000000000000 ) ) ;
#77 = APPLICATION_PROTOCOL_DEFINITION ( 'international standard', 'config_control_design', 1994, #73 ) ;
#78 = CC_DESIGN_APPROVAL ( #138, ( #93 ) ) ;
#79 = EDGE_LOOP ( 'NONE', ( #43 ) ) ;
#80 = AXIS2_PLACEMENT_3D ( 'NONE', #170, #27, #137 ) ;
#81 = EDGE_LOOP ( 'NONE', ( #197 ) ) ;
#82 = FACE_OUTER_BOUND ( 'NONE', #18, .T. ) ;
#83 = LOCAL_TIME ( 7, 14, 51.00000000000000000, #50 ) ;
#84 = DIRECTION ( 'NONE',  ( -3.491481338843133355E-15, 1.224646799147353207E-16, -1.000000000000000000 ) ) ;
#85 = DIRECTION ( 'NONE',  ( 0.0000000000000000000, 1.000000000000000000, 0.0000000000000000000 ) ) ;
#86 = PLANE ( 'NONE',  #139 ) ;
#87 = DIRECTION ( 'NONE',  ( -3.491481338843133355E-15, 1.224646799147353207E-16, -1.000000000000000000 ) ) ;
#88 = AXIS2_PLACEMENT_3D ( 'NONE', #47, #9, #23 ) ;
#89 = PERSON_AND_ORGANIZATION ( #156, #19 ) ;
#90 = CARTESIAN_POINT ( 'NONE',  ( 1.047444401652940007E-13, 0.5499999999999963807, 30.00000000000000000 ) ) ;
#91 = DIRECTION ( 'NONE',  ( 1.000000000000000000, 0.0000000000000000000, 0.0000000000000000000 ) ) ;
#92 = APPROVAL_ROLE ( '' ) ;
#93 = PRODUCT_DEFINITION_FORMATION_WITH_SPECIFIED_SOURCE ( 'ANY', '', #219, .NOT_KNOWN. ) ;
#94 = ORIENTED_EDGE ( 'NONE', *, *, #180, .F. ) ;
#95 = CIRCLE ( 'NONE', #172, 0.7499999999999998890 ) ;
#96 = ORIENTED_EDGE ( 'NONE', *, *, #180, .T. ) ;
#97 = CARTESIAN_POINT ( 'NONE',  ( 1.047444401652940007E-13, 4.124339402320052999E-33, 30.00000000000000000 ) ) ;
#98 = FACE_OUTER_BOUND ( 'NONE', #132, .T. ) ;
#99 = CC_DESIGN_DATE_AND_TIME_ASSIGNMENT ( #145, #60, ( #25 ) ) ;
#100 = CONICAL_SURFACE ( 'NONE', #57, 0.7499999999999973355, 0.5235987755982932645 ) ;
#101 = CARTESIAN_POINT ( 'NONE',  ( 1.047444401652940007E-13, -3.673940397442059178E-15, 30.00000000000000000 ) ) ;
#102 = DIRECTION ( 'NONE',  ( -3.491481338843133355E-15, 1.224646799147353207E-16, -1.000000000000000000 ) ) ;
#103 = FACE_BOUND ( 'NONE', #65, .T. ) ;
#104 = CC_DESIGN_DATE_AND_TIME_ASSIGNMENT ( #142, #193, ( #114 ) ) ;
#105 = CLOSED_SHELL ( 'NONE', ( #148, #166, #4, #149, #112 ) ) ;
#106 = CIRCLE ( 'NONE', #204, 0.7499999999999973355 ) ;
#107 = ADVANCED_FACE ( 'NONE', ( #69, #220 ), #169, .T. ) ;
#108 = APPROVAL ( #62, 'UNSPECIFIED' ) ;
#109 = CALENDAR_DATE ( 2021, 8, 10 ) ;
#110 = VERTEX_POINT ( 'NONE', #126 ) ;
#111 = PERSON_AND_ORGANIZATION ( #156, #19 ) ;
#112 = ADVANCED_FACE ( 'NONE', ( #217 ), #68, .F. ) ;
#113 = CC_DESIGN_APPROVAL ( #108, ( #25 ) ) ;
#114 = PRODUCT_DEFINITION ( 'UNKNOWN', '', #93, #192 ) ;
#115 = MANIFOLD_SOLID_BREP ( 'Corps-Déplacer/Copier1[1]', #105 ) ;
#116 = DATE_AND_TIME ( #44, #130 ) ;
#117 = ORIENTED_EDGE ( 'NONE', *, *, #211, .T. ) ;
#118 = CARTESIAN_POINT ( 'NONE',  ( 1.040461438975253740E-13, -3.649447461459112464E-15, 29.80000000000000071 ) ) ;
#119 = MANIFOLD_SOLID_BREP ( 'Corps-Déplacer/Copier1[2]', #198 ) ;
#120 = CARTESIAN_POINT ( 'NONE',  ( 2.645255885073885842E-14, 0.7499999999999963363, 7.576313972081444525 ) ) ;
#121 = CARTESIAN_POINT ( 'NONE',  ( 2.478951750578624367E-14, -8.694992273946207746E-16, 7.099999999999999645 ) ) ;
#122 = AXIS2_PLACEMENT_3D ( 'NONE', #97, #167, #124 ) ;
#123 = CARTESIAN_POINT ( 'NONE',  ( 2.478951750578624367E-14, 3.561929483821890608E-33, 7.099999999999999645 ) ) ;
#124 = DIRECTION ( 'NONE',  ( 4.275831445896958607E-31, 1.000000000000000000, 1.224646799147353207E-16 ) ) ;
#125 = VERTEX_POINT ( 'NONE', #207 ) ;
#126 = CARTESIAN_POINT ( 'NONE',  ( 1.040461438975253740E-13, 0.7499999999999962252, 29.80000000000000071 ) ) ;
#127 = CIRCLE ( 'NONE', #36, 0.4749999999999976463 ) ;
#128 = COORDINATED_UNIVERSAL_TIME_OFFSET ( 1, 0, .AHEAD. ) ;
#129 = APPLICATION_PROTOCOL_DEFINITION ( 'international standard', 'config_control_design', 1994, #30 ) ;
#130 = LOCAL_TIME ( 7, 14, 51.00000000000000000, #163 ) ;
#131 = APPROVAL_DATE_TIME ( #116, #108 ) ;
#132 = EDGE_LOOP ( 'NONE', ( #2 ) ) ;
#133 = CARTESIAN_POINT ( 'NONE',  ( 9.964994783257245888E-16, -3.495249660672565635E-17, 0.2854087940380928279 ) ) ;
#134 = DIRECTION ( 'NONE',  ( 3.491481338843133355E-15, -1.224646799147353207E-16, 1.000000000000000000 ) ) ;
#135 = ADVANCED_BREP_SHAPE_REPRESENTATION ( '55347', ( #115, #119, #61 ), #209 ) ;
#136 = DIRECTION ( 'NONE',  ( -4.054589356604726834E-31, -1.000000000000000000, -1.141265444721589181E-16 ) ) ;
#137 = DIRECTION ( 'NONE',  ( -4.275831445896958607E-31, -1.000000000000000000, -1.224646799147353207E-16 ) ) ;
#138 = APPROVAL ( #205, 'UNSPECIFIED' ) ;
#139 = AXIS2_PLACEMENT_3D ( 'NONE', #123, #186, #26 ) ;
#140 = VERTEX_POINT ( 'NONE', #120 ) ;
#141 = ADVANCED_FACE ( 'NONE', ( #66 ), #67, .T. ) ;
#142 = DATE_AND_TIME ( #109, #177 ) ;
#143 =( LENGTH_UNIT ( ) NAMED_UNIT ( * ) SI_UNIT ( .MILLI., .METRE. ) );
#144 = CC_DESIGN_PERSON_AND_ORGANIZATION_ASSIGNMENT ( #14, #162, ( #93 ) ) ;
#145 = DATE_AND_TIME ( #51, #83 ) ;
#146 = PERSON_AND_ORGANIZATION ( #156, #19 ) ;
#147 = FACE_OUTER_BOUND ( 'NONE', #150, .T. ) ;
#148 = ADVANCED_FACE ( 'NONE', ( #82 ), #24, .F. ) ;
#149 = ADVANCED_FACE ( 'NONE', ( #6, #103 ), #42, .T. ) ;
#150 = EDGE_LOOP ( 'NONE', ( #64 ) ) ;
#151 = DIRECTION ( 'NONE',  ( 4.054589356604726834E-31, 1.000000000000000000, 1.141265444721589181E-16 ) ) ;
#152 = CIRCLE ( 'NONE', #15, 0.4749999999999988676 ) ;
#153 = DIRECTION ( 'NONE',  ( 0.0000000000000000000, 1.000000000000000000, 0.0000000000000000000 ) ) ;
#154 = CARTESIAN_POINT ( 'NONE',  ( 2.645255885073885842E-14, -9.278308655244911073E-16, 7.576313972081444525 ) ) ;
#155 = DIRECTION ( 'NONE',  ( -3.491481338843133355E-15, 1.224646799147353207E-16, -1.000000000000000000 ) ) ;
#156 = PERSON ( 'UNSPECIFIED', 'UNSPECIFIED', 'UNSPECIFIED', ('UNSPECIFIED'), ('UNSPECIFIED'), ('UNSPECIFIED') ) ;
#157 = DIRECTION ( 'NONE',  ( 0.0000000000000000000, 1.000000000000000000, 0.0000000000000000000 ) ) ;
#158 = PERSON_AND_ORGANIZATION ( #156, #19 ) ;
#159 = PERSON_AND_ORGANIZATION_ROLE ( 'creator' ) ;
#160 =( NAMED_UNIT ( * ) PLANE_ANGLE_UNIT ( ) SI_UNIT ( $, .RADIAN. ) );
#161 = CC_DESIGN_PERSON_AND_ORGANIZATION_ASSIGNMENT ( #173, #72, ( #93 ) ) ;
#162 = PERSON_AND_ORGANIZATION_ROLE ( 'creator' ) ;
#163 = COORDINATED_UNIVERSAL_TIME_OFFSET ( 1, 0, .AHEAD. ) ;
#164 = AXIS2_PLACEMENT_3D ( 'NONE', #171, #200, #157 ) ;
#165 = EDGE_LOOP ( 'NONE', ( #213 ) ) ;
#166 = ADVANCED_FACE ( 'NONE', ( #199, #98 ), #100, .T. ) ;
#167 = DIRECTION ( 'NONE',  ( -3.491481338843133355E-15, 1.224646799147353207E-16, -1.000000000000000000 ) ) ;
#168 = CARTESIAN_POINT ( 'NONE',  ( 9.964994783257245888E-16, -3.495249660672565635E-17, 0.2854087940380928279 ) ) ;
#169 = CYLINDRICAL_SURFACE ( 'NONE', #12, 0.4749999999999982569 ) ;
#170 = CARTESIAN_POINT ( 'NONE',  ( 2.478951750578624367E-14, 3.561929483821890608E-33, 7.099999999999999645 ) ) ;
#171 = CARTESIAN_POINT ( 'NONE',  ( 2.478951750578624367E-14, -8.694992273946207746E-16, 7.099999999999999645 ) ) ;
#172 = AXIS2_PLACEMENT_3D ( 'NONE', #118, #155, #215 ) ;
#173 = PERSON_AND_ORGANIZATION ( #156, #19 ) ;
#174 = PERSON_AND_ORGANIZATION ( #156, #19 ) ;
#175 = PERSON_AND_ORGANIZATION_ROLE ( 'design_owner' ) ;
#176 =( NAMED_UNIT ( * ) SI_UNIT ( $, .STERADIAN. ) SOLID_ANGLE_UNIT ( ) );
#177 = LOCAL_TIME ( 7, 14, 51.00000000000000000, #128 ) ;
#178 = APPROVAL ( #29, 'UNSPECIFIED' ) ;
#179 = APPROVAL_ROLE ( '' ) ;
#180 = EDGE_CURVE ( 'NONE', #125, #125, #152, .T. ) ;
#181 = PRODUCT_DEFINITION_SHAPE ( 'NONE', 'NONE',  #114 ) ;
#182 = CARTESIAN_POINT ( 'NONE',  ( 9.964994783257247860E-16, 0.4749999999999975908, 0.2854087940380928834 ) ) ;
#183 = ADVANCED_FACE ( 'NONE', ( #48 ), #86, .T. ) ;
#184 = VERTEX_POINT ( 'NONE', #74 ) ;
#185 = LOCAL_TIME ( 7, 14, 51.00000000000000000, #32 ) ;
#186 = DIRECTION ( 'NONE',  ( 3.491481338843133355E-15, -1.224646799147353207E-16, 1.000000000000000000 ) ) ;
#187 = DIRECTION ( 'NONE',  ( 3.491481338843133355E-15, -1.224646799147353207E-16, 1.000000000000000000 ) ) ;
#188 = APPROVAL_DATE_TIME ( #222, #138 ) ;
#189 = CC_DESIGN_APPROVAL ( #178, ( #114 ) ) ;
#190 = PERSON_AND_ORGANIZATION ( #156, #19 ) ;
#191 = SECURITY_CLASSIFICATION_LEVEL ( 'unclassified' ) ;
#192 = DESIGN_CONTEXT ( 'detailed design', #30, 'design' ) ;
#193 = DATE_TIME_ROLE ( 'creation_date' ) ;
#194 = DIRECTION ( 'NONE',  ( 0.0000000000000000000, 0.0000000000000000000, 1.000000000000000000 ) ) ;
#195 = EDGE_LOOP ( 'NONE', ( #96 ) ) ;
#196 = AXIS2_PLACEMENT_3D ( 'NONE', #133, #187, #136 ) ;
#197 = ORIENTED_EDGE ( 'NONE', *, *, #28, .F. ) ;
#198 = CLOSED_SHELL ( 'NONE', ( #141, #107, #183 ) ) ;
#199 = FACE_BOUND ( 'NONE', #165, .T. ) ;
#200 = DIRECTION ( 'NONE',  ( -3.491481338843133355E-15, 1.224646799147353207E-16, -1.000000000000000000 ) ) ;
#201 = DIRECTION ( 'NONE',  ( -3.491481338843133355E-15, 1.224646799147353207E-16, -1.000000000000000000 ) ) ;
#202 = DIRECTION ( 'NONE',  ( 0.0000000000000000000, 1.000000000000000000, 0.0000000000000000000 ) ) ;
#203 = VERTEX_POINT ( 'NONE', #182 ) ;
#204 = AXIS2_PLACEMENT_3D ( 'NONE', #49, #84, #85 ) ;
#205 = APPROVAL_STATUS ( 'not_yet_approved' ) ;
#206 = LOCAL_TIME ( 7, 14, 51.00000000000000000, #13 ) ;
#207 = CARTESIAN_POINT ( 'NONE',  ( 2.478951750578624367E-14, 0.4749999999999979794, 7.099999999999999645 ) ) ;
#208 = DATE_AND_TIME ( #37, #206 ) ;
#209 =( GEOMETRIC_REPRESENTATION_CONTEXT ( 3 ) GLOBAL_UNCERTAINTY_ASSIGNED_CONTEXT ( ( #34 ) ) GLOBAL_UNIT_ASSIGNED_CONTEXT ( ( #143, #160, #176 ) ) REPRESENTATION_CONTEXT ( 'NONE', 'WORKASPACE' ) );
#210 = FACE_OUTER_BOUND ( 'NONE', #17, .T. ) ;
#211 = EDGE_CURVE ( 'NONE', #110, #110, #95, .T. ) ;
#212 = CIRCLE ( 'NONE', #223, 0.5500000000000000444 ) ;
#213 = ORIENTED_EDGE ( 'NONE', *, *, #52, .F. ) ;
#214 = ORIENTED_EDGE ( 'NONE', *, *, #28, .T. ) ;
#215 = DIRECTION ( 'NONE',  ( 0.0000000000000000000, 1.000000000000000000, 0.0000000000000000000 ) ) ;
#216 = CYLINDRICAL_SURFACE ( 'NONE', #88, 0.7499999999999985567 ) ;
#217 = FACE_OUTER_BOUND ( 'NONE', #3, .T. ) ;
#218 = CC_DESIGN_SECURITY_CLASSIFICATION ( #25, ( #93 ) ) ;
#219 = PRODUCT ( '55347', '55347', '', ( #56 ) ) ;
#220 = FACE_OUTER_BOUND ( 'NONE', #195, .T. ) ;
#221 = PERSON_AND_ORGANIZATION_ROLE ( 'classification_officer' ) ;
#222 = DATE_AND_TIME ( #35, #185 ) ;
#223 = AXIS2_PLACEMENT_3D ( 'NONE', #20, #11, #153 ) ;
ENDSEC;
END-ISO-10303-21;
