ISO-10303-21;
HEADER;
FILE_DESCRIPTION (( 'STEP AP203' ),
    '1' );
FILE_NAME ('55346.step',
    '2021-10-08T05:14:50',
    ( '' ),
    ( '' ),
    'SwSTEP 2.0',
    'SolidWorks 2019',
    '' );
FILE_SCHEMA (( 'CONFIG_CONTROL_DESIGN' ));
ENDSEC;

DATA;
#1 = APPLICATION_PROTOCOL_DEFINITION ( 'international standard', 'config_control_design', 1994, #21 ) ;
#2 = LOCAL_TIME ( 7, 14, 50.00000000000000000, #159 ) ;
#3 = DIRECTION ( 'NONE',  ( 0.0000000000000000000, 1.000000000000000000, 0.0000000000000000000 ) ) ;
#4 = EDGE_CURVE ( 'NONE', #214, #214, #113, .T. ) ;
#5 = CC_DESIGN_PERSON_AND_ORGANIZATION_ASSIGNMENT ( #32, #173, ( #20 ) ) ;
#6 = APPROVAL_PERSON_ORGANIZATION ( #161, #152, #160 ) ;
#7 = CARTESIAN_POINT ( 'NONE',  ( 1.047444401652940007E-13, 4.124339402320052999E-33, 30.00000000000000000 ) ) ;
#8 = EDGE_LOOP ( 'NONE', ( #131 ) ) ;
#9 = VERTEX_POINT ( 'NONE', #200 ) ;
#10 = CARTESIAN_POINT ( 'NONE',  ( 2.478951750578624367E-14, -8.694992273946207746E-16, 7.099999999999999645 ) ) ;
#11 = AXIS2_PLACEMENT_3D ( 'NONE', #56, #15, #157 ) ;
#12 = CARTESIAN_POINT ( 'NONE',  ( 9.860100101328221085E-16, -3.458457558981275594E-17, 0.2824044909429549999 ) ) ;
#13 = ORIENTED_EDGE ( 'NONE', *, *, #176, .T. ) ;
#14 = PERSON_AND_ORGANIZATION ( #105, #117 ) ;
#15 = DIRECTION ( 'NONE',  ( -3.491481338843133355E-15, 1.224646799147353207E-16, -1.000000000000000000 ) ) ;
#16 = CALENDAR_DATE ( 2021, 8, 10 ) ;
#17 = CALENDAR_DATE ( 2021, 8, 10 ) ;
#18 = CONICAL_SURFACE ( 'NONE', #110, 0.7499999999999973355, 0.5235987755982914882 ) ;
#19 = APPROVAL_STATUS ( 'not_yet_approved' ) ;
#20 = SECURITY_CLASSIFICATION ( '', '', #174 ) ;
#21 = APPLICATION_CONTEXT ( 'configuration controlled 3d designs of mechanical parts and assemblies' ) ;
#22 = CIRCLE ( 'NONE', #185, 0.5500000000000000444 ) ;
#23 = EDGE_LOOP ( 'NONE', ( #137 ) ) ;
#24 =( NAMED_UNIT ( * ) PLANE_ANGLE_UNIT ( ) SI_UNIT ( $, .RADIAN. ) );
#25 = CC_DESIGN_APPROVAL ( #148, ( #20 ) ) ;
#26 = VERTEX_POINT ( 'NONE', #167 ) ;
#27 = CARTESIAN_POINT ( 'NONE',  ( 0.0000000000000000000, 0.0000000000000000000, 0.0000000000000000000 ) ) ;
#28 = AXIS2_PLACEMENT_3D ( 'NONE', #206, #89, #220 ) ;
#29 = COORDINATED_UNIVERSAL_TIME_OFFSET ( 1, 0, .AHEAD. ) ;
#30 = PERSON_AND_ORGANIZATION_ROLE ( 'creator' ) ;
#31 = AXIS2_PLACEMENT_3D ( 'NONE', #7, #99, #135 ) ;
#32 = PERSON_AND_ORGANIZATION ( #105, #117 ) ;
#33 = CLOSED_SHELL ( 'NONE', ( #145, #180, #100, #192, #136 ) ) ;
#34 = ORIENTED_EDGE ( 'NONE', *, *, #92, .T. ) ;
#35 = CARTESIAN_POINT ( 'NONE',  ( 2.478951750578624367E-14, 3.524435489255345262E-33, 7.099999999999999645 ) ) ;
#36 = CYLINDRICAL_SURFACE ( 'NONE', #28, 0.7499999999999985567 ) ;
#37 = DIRECTION ( 'NONE',  ( 0.0000000000000000000, -1.000000000000000000, 0.0000000000000000000 ) ) ;
#38 = AXIS2_PLACEMENT_3D ( 'NONE', #27, #102, #80 ) ;
#39 = DIRECTION ( 'NONE',  ( -3.491481338843133355E-15, 1.224646799147353207E-16, -1.000000000000000000 ) ) ;
#40 = DIRECTION ( 'NONE',  ( -3.491481338843133355E-15, 1.224646799147353207E-16, -1.000000000000000000 ) ) ;
#41 = AXIS2_PLACEMENT_3D ( 'NONE', #207, #165, #112 ) ;
#42 = DATE_AND_TIME ( #44, #2 ) ;
#43 = CC_DESIGN_DATE_AND_TIME_ASSIGNMENT ( #221, #143, ( #20 ) ) ;
#44 = CALENDAR_DATE ( 2021, 8, 10 ) ;
#45 = PERSON_AND_ORGANIZATION_ROLE ( 'design_owner' ) ;
#46 = CARTESIAN_POINT ( 'NONE',  ( 2.478951750578624367E-14, 3.524435489255345262E-33, 7.099999999999999645 ) ) ;
#47 = CC_DESIGN_SECURITY_CLASSIFICATION ( #20, ( #193 ) ) ;
#48 = CC_DESIGN_PERSON_AND_ORGANIZATION_ASSIGNMENT ( #104, #127, ( #217 ) ) ;
#49 = APPROVAL_DATE_TIME ( #85, #148 ) ;
#50 = EDGE_LOOP ( 'NONE', ( #34 ) ) ;
#51 = EDGE_LOOP ( 'NONE', ( #90 ) ) ;
#52 = EDGE_LOOP ( 'NONE', ( #69 ) ) ;
#53 = CONICAL_SURFACE ( 'NONE', #155, 0.4699999999999976419, 1.029744258676649649 ) ;
#54 = FACE_OUTER_BOUND ( 'NONE', #212, .T. ) ;
#55 = EDGE_LOOP ( 'NONE', ( #58 ) ) ;
#56 = CARTESIAN_POINT ( 'NONE',  ( 9.860100101328221085E-16, -3.458457558981275594E-17, 0.2824044909429549999 ) ) ;
#57 = DIRECTION ( 'NONE',  ( -4.097723285930309640E-31, -1.000000000000000000, -1.153406566473946683E-16 ) ) ;
#58 = ORIENTED_EDGE ( 'NONE', *, *, #4, .F. ) ;
#59 = DIRECTION ( 'NONE',  ( -4.275831445896958607E-31, -1.000000000000000000, -1.224646799147353207E-16 ) ) ;
#60 = CARTESIAN_POINT ( 'NONE',  ( 2.478951750578624367E-14, -8.694992273946207746E-16, 7.099999999999999645 ) ) ;
#61 = AXIS2_PLACEMENT_3D ( 'NONE', #60, #123, #3 ) ;
#62 = DATE_TIME_ROLE ( 'creation_date' ) ;
#63 = COORDINATED_UNIVERSAL_TIME_OFFSET ( 1, 0, .AHEAD. ) ;
#64 = PRODUCT ( '55346', '55346', '', ( #125 ) ) ;
#65 = APPROVAL_DATE_TIME ( #223, #152 ) ;
#66 = APPROVAL_DATE_TIME ( #202, #195 ) ;
#67 = AXIS2_PLACEMENT_3D ( 'NONE', #46, #171, #59 ) ;
#68 = ADVANCED_FACE ( 'NONE', ( #78 ), #121, .T. ) ;
#69 = ORIENTED_EDGE ( 'NONE', *, *, #209, .T. ) ;
#70 = DIRECTION ( 'NONE',  ( 3.491481338843133355E-15, -1.224646799147353207E-16, 1.000000000000000000 ) ) ;
#71 = PLANE ( 'NONE',  #31 ) ;
#72 = CONICAL_SURFACE ( 'NONE', #208, 0.5500000000000000444, 0.7853981633974510546 ) ;
#73 = ADVANCED_FACE ( 'NONE', ( #198, #162 ), #126, .T. ) ;
#74 = APPLICATION_PROTOCOL_DEFINITION ( 'international standard', 'config_control_design', 1994, #181 ) ;
#75 = ORIENTED_EDGE ( 'NONE', *, *, #209, .F. ) ;
#76 = CARTESIAN_POINT ( 'NONE',  ( 2.478951750578624367E-14, 0.4699999999999981970, 7.099999999999999645 ) ) ;
#77 = VERTEX_POINT ( 'NONE', #115 ) ;
#78 = FACE_OUTER_BOUND ( 'NONE', #177, .T. ) ;
#79 = CLOSED_SHELL ( 'NONE', ( #158, #73, #68 ) ) ;
#80 = DIRECTION ( 'NONE',  ( 1.000000000000000000, 0.0000000000000000000, 0.0000000000000000000 ) ) ;
#81 = PERSON_AND_ORGANIZATION_ROLE ( 'design_supplier' ) ;
#82 = MANIFOLD_SOLID_BREP ( 'Corps-Déplacer/Copier1[1]', #33 ) ;
#83 = CIRCLE ( 'NONE', #170, 0.7499999999999973355 ) ;
#84 = CALENDAR_DATE ( 2021, 8, 10 ) ;
#85 = DATE_AND_TIME ( #146, #194 ) ;
#86 = APPROVAL_PERSON_ORGANIZATION ( #124, #195, #219 ) ;
#87 = EDGE_LOOP ( 'NONE', ( #95 ) ) ;
#88 = ORIENTED_EDGE ( 'NONE', *, *, #176, .F. ) ;
#89 = DIRECTION ( 'NONE',  ( -3.491481338843133355E-15, 1.224646799147353207E-16, -1.000000000000000000 ) ) ;
#90 = ORIENTED_EDGE ( 'NONE', *, *, #147, .T. ) ;
#91 = CIRCLE ( 'NONE', #203, 0.4699999999999990852 ) ;
#92 = EDGE_CURVE ( 'NONE', #101, #101, #139, .T. ) ;
#93 = ORIENTED_EDGE ( 'NONE', *, *, #4, .T. ) ;
#94 = DIRECTION ( 'NONE',  ( 0.0000000000000000000, 1.000000000000000000, 0.0000000000000000000 ) ) ;
#95 = ORIENTED_EDGE ( 'NONE', *, *, #147, .F. ) ;
#96 = ADVANCED_BREP_SHAPE_REPRESENTATION ( '55346', ( #82, #164, #38 ), #103 ) ;
#97 =( NAMED_UNIT ( * ) SI_UNIT ( $, .STERADIAN. ) SOLID_ANGLE_UNIT ( ) );
#98 = EDGE_LOOP ( 'NONE', ( #88 ) ) ;
#99 = DIRECTION ( 'NONE',  ( -3.491481338843133355E-15, 1.224646799147353207E-16, -1.000000000000000000 ) ) ;
#100 = ADVANCED_FACE ( 'NONE', ( #191, #150 ), #36, .T. ) ;
#101 = VERTEX_POINT ( 'NONE', #76 ) ;
#102 = DIRECTION ( 'NONE',  ( 0.0000000000000000000, 0.0000000000000000000, 1.000000000000000000 ) ) ;
#103 =( GEOMETRIC_REPRESENTATION_CONTEXT ( 3 ) GLOBAL_UNCERTAINTY_ASSIGNED_CONTEXT ( ( #205 ) ) GLOBAL_UNIT_ASSIGNED_CONTEXT ( ( #216, #24, #97 ) ) REPRESENTATION_CONTEXT ( 'NONE', 'WORKASPACE' ) );
#104 = PERSON_AND_ORGANIZATION ( #105, #117 ) ;
#105 = PERSON ( 'UNSPECIFIED', 'UNSPECIFIED', 'UNSPECIFIED', ('UNSPECIFIED'), ('UNSPECIFIED'), ('UNSPECIFIED') ) ;
#106 = APPROVAL_ROLE ( '' ) ;
#107 = AXIS2_PLACEMENT_3D ( 'NONE', #211, #183, #119 ) ;
#108 = PERSON_AND_ORGANIZATION ( #105, #117 ) ;
#109 = CC_DESIGN_PERSON_AND_ORGANIZATION_ASSIGNMENT ( #108, #81, ( #193 ) ) ;
#110 = AXIS2_PLACEMENT_3D ( 'NONE', #210, #116, #37 ) ;
#111 = CC_DESIGN_DATE_AND_TIME_ASSIGNMENT ( #42, #62, ( #217 ) ) ;
#112 = DIRECTION ( 'NONE',  ( 0.0000000000000000000, 1.000000000000000000, 0.0000000000000000000 ) ) ;
#113 = CIRCLE ( 'NONE', #11, 0.4699999999999976419 ) ;
#114 = EDGE_LOOP ( 'NONE', ( #13 ) ) ;
#115 = CARTESIAN_POINT ( 'NONE',  ( 1.047444401652940007E-13, 0.5499999999999963807, 30.00000000000000000 ) ) ;
#116 = DIRECTION ( 'NONE',  ( 3.491481338843133355E-15, -1.224646799147353207E-16, 1.000000000000000000 ) ) ;
#117 = ORGANIZATION ( 'UNSPECIFIED', 'UNSPECIFIED', '' ) ;
#118 = CARTESIAN_POINT ( 'NONE',  ( 2.478951750578624367E-14, 0.4699999999999981970, 7.099999999999999645 ) ) ;
#119 = DIRECTION ( 'NONE',  ( 4.275831445896958607E-31, 1.000000000000000000, 1.224646799147353207E-16 ) ) ;
#120 = PLANE ( 'NONE',  #175 ) ;
#121 = PLANE ( 'NONE',  #67 ) ;
#122 = CC_DESIGN_APPROVAL ( #152, ( #217 ) ) ;
#123 = DIRECTION ( 'NONE',  ( -3.491481338843133355E-15, 1.224646799147353207E-16, -1.000000000000000000 ) ) ;
#124 = PERSON_AND_ORGANIZATION ( #105, #117 ) ;
#125 = MECHANICAL_CONTEXT ( 'NONE', #181, 'mechanical' ) ;
#126 = CYLINDRICAL_SURFACE ( 'NONE', #107, 0.4699999999999983635 ) ;
#127 = PERSON_AND_ORGANIZATION_ROLE ( 'creator' ) ;
#128 = APPROVAL_STATUS ( 'not_yet_approved' ) ;
#129 = APPROVAL_PERSON_ORGANIZATION ( #187, #148, #106 ) ;
#130 = EDGE_LOOP ( 'NONE', ( #93 ) ) ;
#131 = ORIENTED_EDGE ( 'NONE', *, *, #92, .F. ) ;
#132 = DIRECTION ( 'NONE',  ( -3.491481338843133355E-15, 1.224646799147353207E-16, -1.000000000000000000 ) ) ;
#133 = EDGE_CURVE ( 'NONE', #26, #26, #163, .T. ) ;
#134 = ORIENTED_EDGE ( 'NONE', *, *, #133, .F. ) ;
#135 = DIRECTION ( 'NONE',  ( 4.275831445896958607E-31, 1.000000000000000000, 1.224646799147353207E-16 ) ) ;
#136 = ADVANCED_FACE ( 'NONE', ( #179 ), #71, .F. ) ;
#137 = ORIENTED_EDGE ( 'NONE', *, *, #133, .T. ) ;
#138 = FACE_OUTER_BOUND ( 'NONE', #50, .T. ) ;
#139 = CIRCLE ( 'NONE', #61, 0.4699999999999990852 ) ;
#140 = CARTESIAN_POINT ( 'NONE',  ( 1.047444401652940007E-13, -3.673940397442059178E-15, 30.00000000000000000 ) ) ;
#141 = CC_DESIGN_PERSON_AND_ORGANIZATION_ASSIGNMENT ( #188, #45, ( #64 ) ) ;
#142 = VERTEX_POINT ( 'NONE', #118 ) ;
#143 = DATE_TIME_ROLE ( 'classification_date' ) ;
#144 = DESIGN_CONTEXT ( 'detailed design', #21, 'design' ) ;
#145 = ADVANCED_FACE ( 'NONE', ( #138 ), #120, .F. ) ;
#146 = CALENDAR_DATE ( 2021, 8, 10 ) ;
#147 = EDGE_CURVE ( 'NONE', #9, #9, #83, .T. ) ;
#148 = APPROVAL ( #128, 'UNSPECIFIED' ) ;
#149 = LOCAL_TIME ( 7, 14, 50.00000000000000000, #29 ) ;
#150 = FACE_OUTER_BOUND ( 'NONE', #23, .T. ) ;
#151 = DIRECTION ( 'NONE',  ( 0.0000000000000000000, 1.000000000000000000, 0.0000000000000000000 ) ) ;
#152 = APPROVAL ( #19, 'UNSPECIFIED' ) ;
#153 = CARTESIAN_POINT ( 'NONE',  ( 2.648279596610163978E-14, -9.288914407632161515E-16, 7.584974226119290286 ) ) ;
#154 = DIRECTION ( 'NONE',  ( 0.0000000000000000000, 1.000000000000000000, 0.0000000000000000000 ) ) ;
#155 = AXIS2_PLACEMENT_3D ( 'NONE', #12, #182, #57 ) ;
#156 = FACE_BOUND ( 'NONE', #8, .T. ) ;
#157 = DIRECTION ( 'NONE',  ( 4.097723285930309640E-31, 1.000000000000000000, 1.153406566473946683E-16 ) ) ;
#158 = ADVANCED_FACE ( 'NONE', ( #197 ), #53, .T. ) ;
#159 = COORDINATED_UNIVERSAL_TIME_OFFSET ( 1, 0, .AHEAD. ) ;
#160 = APPROVAL_ROLE ( '' ) ;
#161 = PERSON_AND_ORGANIZATION ( #105, #117 ) ;
#162 = FACE_OUTER_BOUND ( 'NONE', #52, .T. ) ;
#163 = CIRCLE ( 'NONE', #41, 0.7499999999999998890 ) ;
#164 = MANIFOLD_SOLID_BREP ( 'Corps-Déplacer/Copier1[2]', #79 ) ;
#165 = DIRECTION ( 'NONE',  ( -3.491481338843133355E-15, 1.224646799147353207E-16, -1.000000000000000000 ) ) ;
#166 = PRODUCT_RELATED_PRODUCT_CATEGORY ( 'detail', '', ( #64 ) ) ;
#167 = CARTESIAN_POINT ( 'NONE',  ( 1.040461438975253740E-13, 0.7499999999999962252, 29.80000000000000071 ) ) ;
#168 = CARTESIAN_POINT ( 'NONE',  ( 9.860100101328223057E-16, 0.4699999999999975864, 0.2824044909429550554 ) ) ;
#169 = FACE_OUTER_BOUND ( 'NONE', #51, .T. ) ;
#170 = AXIS2_PLACEMENT_3D ( 'NONE', #153, #132, #151 ) ;
#171 = DIRECTION ( 'NONE',  ( 3.491481338843133355E-15, -1.224646799147353207E-16, 1.000000000000000000 ) ) ;
#172 = SHAPE_DEFINITION_REPRESENTATION ( #218, #96 ) ;
#173 = PERSON_AND_ORGANIZATION_ROLE ( 'classification_officer' ) ;
#174 = SECURITY_CLASSIFICATION_LEVEL ( 'unclassified' ) ;
#175 = AXIS2_PLACEMENT_3D ( 'NONE', #35, #70, #213 ) ;
#176 = EDGE_CURVE ( 'NONE', #77, #77, #22, .T. ) ;
#177 = EDGE_LOOP ( 'NONE', ( #75 ) ) ;
#178 = CC_DESIGN_PERSON_AND_ORGANIZATION_ASSIGNMENT ( #14, #30, ( #193 ) ) ;
#179 = FACE_OUTER_BOUND ( 'NONE', #98, .T. ) ;
#180 = ADVANCED_FACE ( 'NONE', ( #156, #169 ), #18, .T. ) ;
#181 = APPLICATION_CONTEXT ( 'configuration controlled 3d designs of mechanical parts and assemblies' ) ;
#182 = DIRECTION ( 'NONE',  ( 3.491481338843133355E-15, -1.224646799147353207E-16, 1.000000000000000000 ) ) ;
#183 = DIRECTION ( 'NONE',  ( -3.491481338843133355E-15, 1.224646799147353207E-16, -1.000000000000000000 ) ) ;
#184 = CARTESIAN_POINT ( 'NONE',  ( 1.047444401652940007E-13, -3.673940397442059178E-15, 30.00000000000000000 ) ) ;
#185 = AXIS2_PLACEMENT_3D ( 'NONE', #184, #201, #196 ) ;
#186 = COORDINATED_UNIVERSAL_TIME_OFFSET ( 1, 0, .AHEAD. ) ;
#187 = PERSON_AND_ORGANIZATION ( #105, #117 ) ;
#188 = PERSON_AND_ORGANIZATION ( #105, #117 ) ;
#189 = LOCAL_TIME ( 7, 14, 50.00000000000000000, #204 ) ;
#190 = APPROVAL_STATUS ( 'not_yet_approved' ) ;
#191 = FACE_OUTER_BOUND ( 'NONE', #87, .T. ) ;
#192 = ADVANCED_FACE ( 'NONE', ( #54, #199 ), #72, .T. ) ;
#193 = PRODUCT_DEFINITION_FORMATION_WITH_SPECIFIED_SOURCE ( 'ANY', '', #64, .NOT_KNOWN. ) ;
#194 = LOCAL_TIME ( 7, 14, 50.00000000000000000, #186 ) ;
#195 = APPROVAL ( #190, 'UNSPECIFIED' ) ;
#196 = DIRECTION ( 'NONE',  ( 0.0000000000000000000, 1.000000000000000000, 0.0000000000000000000 ) ) ;
#197 = FACE_OUTER_BOUND ( 'NONE', #130, .T. ) ;
#198 = FACE_OUTER_BOUND ( 'NONE', #55, .T. ) ;
#199 = FACE_BOUND ( 'NONE', #114, .T. ) ;
#200 = CARTESIAN_POINT ( 'NONE',  ( 2.648279596610163978E-14, 0.7499999999999963363, 7.584974226119290286 ) ) ;
#201 = DIRECTION ( 'NONE',  ( -3.491481338843133355E-15, 1.224646799147353207E-16, -1.000000000000000000 ) ) ;
#202 = DATE_AND_TIME ( #16, #149 ) ;
#203 = AXIS2_PLACEMENT_3D ( 'NONE', #10, #40, #94 ) ;
#204 = COORDINATED_UNIVERSAL_TIME_OFFSET ( 1, 0, .AHEAD. ) ;
#205 = UNCERTAINTY_MEASURE_WITH_UNIT (LENGTH_MEASURE( 1.000000000000000082E-05 ), #216, 'distance_accuracy_value', 'NONE');
#206 = CARTESIAN_POINT ( 'NONE',  ( 0.0000000000000000000, 0.0000000000000000000, 0.0000000000000000000 ) ) ;
#207 = CARTESIAN_POINT ( 'NONE',  ( 1.040461438975253740E-13, -3.649447461459112464E-15, 29.80000000000000071 ) ) ;
#208 = AXIS2_PLACEMENT_3D ( 'NONE', #140, #39, #154 ) ;
#209 = EDGE_CURVE ( 'NONE', #142, #142, #91, .T. ) ;
#210 = CARTESIAN_POINT ( 'NONE',  ( 2.648279596610163978E-14, -9.288914407632161515E-16, 7.584974226119290286 ) ) ;
#211 = CARTESIAN_POINT ( 'NONE',  ( 0.0000000000000000000, 0.0000000000000000000, 0.0000000000000000000 ) ) ;
#212 = EDGE_LOOP ( 'NONE', ( #134 ) ) ;
#213 = DIRECTION ( 'NONE',  ( -4.275831445896958607E-31, -1.000000000000000000, -1.224646799147353207E-16 ) ) ;
#214 = VERTEX_POINT ( 'NONE', #168 ) ;
#215 = LOCAL_TIME ( 7, 14, 50.00000000000000000, #63 ) ;
#216 =( LENGTH_UNIT ( ) NAMED_UNIT ( * ) SI_UNIT ( .MILLI., .METRE. ) );
#217 = PRODUCT_DEFINITION ( 'UNKNOWN', '', #193, #144 ) ;
#218 = PRODUCT_DEFINITION_SHAPE ( 'NONE', 'NONE',  #217 ) ;
#219 = APPROVAL_ROLE ( '' ) ;
#220 = DIRECTION ( 'NONE',  ( 4.275831445896959482E-31, 1.000000000000000000, 1.224646799147353454E-16 ) ) ;
#221 = DATE_AND_TIME ( #84, #215 ) ;
#222 = CC_DESIGN_APPROVAL ( #195, ( #193 ) ) ;
#223 = DATE_AND_TIME ( #17, #189 ) ;
ENDSEC;
END-ISO-10303-21;
