ISO-10303-21;
HEADER;
FILE_DESCRIPTION (( 'STEP AP203' ),
    '1' );
FILE_NAME ('55345.step',
    '2021-10-08T05:14:49',
    ( '' ),
    ( '' ),
    'SwSTEP 2.0',
    'SolidWorks 2019',
    '' );
FILE_SCHEMA (( 'CONFIG_CONTROL_DESIGN' ));
ENDSEC;

DATA;
#1 = AXIS2_PLACEMENT_3D ( 'NONE', #127, #96, #53 ) ;
#2 = PERSON_AND_ORGANIZATION ( #116, #140 ) ;
#3 = DIRECTION ( 'NONE',  ( 3.491481338843133355E-15, -1.224646799147353207E-16, 1.000000000000000000 ) ) ;
#4 = DATE_AND_TIME ( #54, #76 ) ;
#5 = AXIS2_PLACEMENT_3D ( 'NONE', #161, #145, #72 ) ;
#6 = CC_DESIGN_PERSON_AND_ORGANIZATION_ASSIGNMENT ( #2, #146, ( #124 ) ) ;
#7 = ORIENTED_EDGE ( 'NONE', *, *, #24, .T. ) ;
#8 = DIRECTION ( 'NONE',  ( 3.491481338843133355E-15, -1.224646799147353207E-16, 1.000000000000000000 ) ) ;
#9 = CIRCLE ( 'NONE', #66, 0.7499999999999973355 ) ;
#10 = CC_DESIGN_SECURITY_CLASSIFICATION ( #111, ( #124 ) ) ;
#11 = APPLICATION_PROTOCOL_DEFINITION ( 'international standard', 'config_control_design', 1994, #177 ) ;
#12 = ORIENTED_EDGE ( 'NONE', *, *, #152, .T. ) ;
#13 = CYLINDRICAL_SURFACE ( 'NONE', #1, 0.4649999999999980815 ) ;
#14 = EDGE_LOOP ( 'NONE', ( #220 ) ) ;
#15 = EDGE_LOOP ( 'NONE', ( #101 ) ) ;
#16 = CARTESIAN_POINT ( 'NONE',  ( 2.478951750578624051E-14, -8.694992273946205774E-16, 7.099999999999998757 ) ) ;
#17 = LOCAL_TIME ( 7, 14, 49.00000000000000000, #216 ) ;
#18 = ADVANCED_FACE ( 'NONE', ( #82 ), #38, .F. ) ;
#19 = SHAPE_DEFINITION_REPRESENTATION ( #162, #77 ) ;
#20 = CYLINDRICAL_SURFACE ( 'NONE', #74, 0.7499999999999985567 ) ;
#21 = DIRECTION ( 'NONE',  ( 4.275831445896958607E-31, 1.000000000000000000, 1.224646799147353207E-16 ) ) ;
#22 = DIRECTION ( 'NONE',  ( 0.0000000000000000000, 0.0000000000000000000, 1.000000000000000000 ) ) ;
#23 = CARTESIAN_POINT ( 'NONE',  ( 2.478951750578624051E-14, 0.4649999999999975264, 7.099999999999998757 ) ) ;
#24 = EDGE_CURVE ( 'NONE', #97, #97, #45, .T. ) ;
#25 = CARTESIAN_POINT ( 'NONE',  ( 2.651303308146441167E-14, -9.299520160019409985E-16, 7.593634480157134270 ) ) ;
#26 = CC_DESIGN_DATE_AND_TIME_ASSIGNMENT ( #210, #91, ( #111 ) ) ;
#27 = EDGE_LOOP ( 'NONE', ( #151 ) ) ;
#28 = AXIS2_PLACEMENT_3D ( 'NONE', #181, #149, #219 ) ;
#29 = AXIS2_PLACEMENT_3D ( 'NONE', #155, #3, #86 ) ;
#30 = DIRECTION ( 'NONE',  ( 0.0000000000000000000, 1.000000000000000000, 0.0000000000000000000 ) ) ;
#31 = FACE_OUTER_BOUND ( 'NONE', #15, .T. ) ;
#32 = FACE_OUTER_BOUND ( 'NONE', #167, .T. ) ;
#33 = ORIENTED_EDGE ( 'NONE', *, *, #118, .T. ) ;
#34 = MECHANICAL_CONTEXT ( 'NONE', #117, 'mechanical' ) ;
#35 = PERSON_AND_ORGANIZATION ( #116, #140 ) ;
#36 = EDGE_LOOP ( 'NONE', ( #33 ) ) ;
#37 = CARTESIAN_POINT ( 'NONE',  ( 2.478951750578624051E-14, 0.4649999999999975264, 7.099999999999998757 ) ) ;
#38 = PLANE ( 'NONE',  #160 ) ;
#39 = AXIS2_PLACEMENT_3D ( 'NONE', #44, #119, #188 ) ;
#40 = APPROVAL_PERSON_ORGANIZATION ( #35, #179, #92 ) ;
#41 = CC_DESIGN_DATE_AND_TIME_ASSIGNMENT ( #43, #64, ( #131 ) ) ;
#42 = VERTEX_POINT ( 'NONE', #37 ) ;
#43 = DATE_AND_TIME ( #113, #173 ) ;
#44 = CARTESIAN_POINT ( 'NONE',  ( 2.478951750578624051E-14, -8.694992273946205774E-16, 7.099999999999998757 ) ) ;
#45 = CIRCLE ( 'NONE', #5, 0.5500000000000000444 ) ;
#46 = CARTESIAN_POINT ( 'NONE',  ( 9.755205419399198254E-16, -3.421665457289985552E-17, 0.2794001878478171719 ) ) ;
#47 = FACE_OUTER_BOUND ( 'NONE', #36, .T. ) ;
#48 = PERSON_AND_ORGANIZATION ( #116, #140 ) ;
#49 = DIRECTION ( 'NONE',  ( -3.491481338843133355E-15, 1.224646799147353207E-16, -1.000000000000000000 ) ) ;
#50 = DATE_AND_TIME ( #175, #147 ) ;
#51 = MANIFOLD_SOLID_BREP ( 'Corps-Déplacer/Copier1[2]', #187 ) ;
#52 = FACE_OUTER_BOUND ( 'NONE', #14, .T. ) ;
#53 = DIRECTION ( 'NONE',  ( 4.275831445896958607E-31, 1.000000000000000000, 1.224646799147353207E-16 ) ) ;
#54 = CALENDAR_DATE ( 2021, 8, 10 ) ;
#55 = PERSON_AND_ORGANIZATION ( #116, #140 ) ;
#56 = VERTEX_POINT ( 'NONE', #133 ) ;
#57 = VERTEX_POINT ( 'NONE', #59 ) ;
#58 = EDGE_LOOP ( 'NONE', ( #197 ) ) ;
#59 = CARTESIAN_POINT ( 'NONE',  ( 9.755205419399200226E-16, 0.4649999999999976374, 0.2794001878478172274 ) ) ;
#60 = CONICAL_SURFACE ( 'NONE', #99, 0.4649999999999976930, 1.029744258676649649 ) ;
#61 = CARTESIAN_POINT ( 'NONE',  ( 9.755205419399198254E-16, -3.421665457289985552E-17, 0.2794001878478171719 ) ) ;
#62 =( NAMED_UNIT ( * ) PLANE_ANGLE_UNIT ( ) SI_UNIT ( $, .RADIAN. ) );
#63 = EDGE_LOOP ( 'NONE', ( #12 ) ) ;
#64 = DATE_TIME_ROLE ( 'creation_date' ) ;
#65 = APPROVAL_DATE_TIME ( #112, #126 ) ;
#66 = AXIS2_PLACEMENT_3D ( 'NONE', #25, #199, #202 ) ;
#67 = CARTESIAN_POINT ( 'NONE',  ( 1.040461438975253740E-13, -3.649447461459112464E-15, 29.80000000000000071 ) ) ;
#68 = ADVANCED_FACE ( 'NONE', ( #166, #52 ), #13, .T. ) ;
#69 = ADVANCED_FACE ( 'NONE', ( #130, #198 ), #128, .T. ) ;
#70 = DIRECTION ( 'NONE',  ( -4.141784826639237842E-31, -1.000000000000000000, -1.165808787618827870E-16 ) ) ;
#71 = EDGE_LOOP ( 'NONE', ( #73 ) ) ;
#72 = DIRECTION ( 'NONE',  ( 0.0000000000000000000, 1.000000000000000000, 0.0000000000000000000 ) ) ;
#73 = ORIENTED_EDGE ( 'NONE', *, *, #75, .T. ) ;
#74 = AXIS2_PLACEMENT_3D ( 'NONE', #90, #157, #123 ) ;
#75 = EDGE_CURVE ( 'NONE', #57, #57, #156, .T. ) ;
#76 = LOCAL_TIME ( 7, 14, 49.00000000000000000, #158 ) ;
#77 = ADVANCED_BREP_SHAPE_REPRESENTATION ( '55345', ( #214, #51, #193 ), #85 ) ;
#78 = PERSON_AND_ORGANIZATION ( #116, #140 ) ;
#79 = APPROVAL ( #135, 'UNSPECIFIED' ) ;
#80 = ORIENTED_EDGE ( 'NONE', *, *, #108, .F. ) ;
#81 = CARTESIAN_POINT ( 'NONE',  ( 1.047444401652940007E-13, -3.673940397442059178E-15, 30.00000000000000000 ) ) ;
#82 = FACE_OUTER_BOUND ( 'NONE', #63, .T. ) ;
#83 =( NAMED_UNIT ( * ) SI_UNIT ( $, .STERADIAN. ) SOLID_ANGLE_UNIT ( ) );
#84 = AXIS2_PLACEMENT_3D ( 'NONE', #212, #49, #21 ) ;
#85 =( GEOMETRIC_REPRESENTATION_CONTEXT ( 3 ) GLOBAL_UNCERTAINTY_ASSIGNED_CONTEXT ( ( #191 ) ) GLOBAL_UNIT_ASSIGNED_CONTEXT ( ( #171, #62, #83 ) ) REPRESENTATION_CONTEXT ( 'NONE', 'WORKASPACE' ) );
#86 = DIRECTION ( 'NONE',  ( -4.275831445896958607E-31, -1.000000000000000000, -1.224646799147353207E-16 ) ) ;
#87 = DIRECTION ( 'NONE',  ( 3.491481338843133355E-15, -1.224646799147353207E-16, 1.000000000000000000 ) ) ;
#88 = CIRCLE ( 'NONE', #105, 0.7499999999999998890 ) ;
#89 = COORDINATED_UNIVERSAL_TIME_OFFSET ( 1, 0, .AHEAD. ) ;
#90 = CARTESIAN_POINT ( 'NONE',  ( 0.0000000000000000000, 0.0000000000000000000, 0.0000000000000000000 ) ) ;
#91 = DATE_TIME_ROLE ( 'classification_date' ) ;
#92 = APPROVAL_ROLE ( '' ) ;
#93 = APPROVAL_DATE_TIME ( #50, #79 ) ;
#94 = DIRECTION ( 'NONE',  ( 1.000000000000000000, 0.0000000000000000000, 0.0000000000000000000 ) ) ;
#95 = VERTEX_POINT ( 'NONE', #163 ) ;
#96 = DIRECTION ( 'NONE',  ( -3.491481338843133355E-15, 1.224646799147353207E-16, -1.000000000000000000 ) ) ;
#97 = VERTEX_POINT ( 'NONE', #182 ) ;
#98 = AXIS2_PLACEMENT_3D ( 'NONE', #16, #100, #150 ) ;
#99 = AXIS2_PLACEMENT_3D ( 'NONE', #46, #87, #70 ) ;
#100 = DIRECTION ( 'NONE',  ( -3.491481338843133355E-15, 1.224646799147353207E-16, -1.000000000000000000 ) ) ;
#101 = ORIENTED_EDGE ( 'NONE', *, *, #24, .F. ) ;
#102 = APPROVAL_ROLE ( '' ) ;
#103 = PLANE ( 'NONE',  #29 ) ;
#104 = DESIGN_CONTEXT ( 'detailed design', #177, 'design' ) ;
#105 = AXIS2_PLACEMENT_3D ( 'NONE', #67, #223, #194 ) ;
#106 = CC_DESIGN_APPROVAL ( #179, ( #111 ) ) ;
#107 = PERSON_AND_ORGANIZATION_ROLE ( 'classification_officer' ) ;
#108 = EDGE_CURVE ( 'NONE', #196, #196, #136, .T. ) ;
#109 = CARTESIAN_POINT ( 'NONE',  ( 0.0000000000000000000, 0.0000000000000000000, 0.0000000000000000000 ) ) ;
#110 = EDGE_LOOP ( 'NONE', ( #203 ) ) ;
#111 = SECURITY_CLASSIFICATION ( '', '', #211 ) ;
#112 = DATE_AND_TIME ( #183, #17 ) ;
#113 = CALENDAR_DATE ( 2021, 8, 10 ) ;
#114 = AXIS2_PLACEMENT_3D ( 'NONE', #61, #138, #170 ) ;
#115 = PERSON_AND_ORGANIZATION ( #116, #140 ) ;
#116 = PERSON ( 'UNSPECIFIED', 'UNSPECIFIED', 'UNSPECIFIED', ('UNSPECIFIED'), ('UNSPECIFIED'), ('UNSPECIFIED') ) ;
#117 = APPLICATION_CONTEXT ( 'configuration controlled 3d designs of mechanical parts and assemblies' ) ;
#118 = EDGE_CURVE ( 'NONE', #95, #95, #88, .T. ) ;
#119 = DIRECTION ( 'NONE',  ( -3.491481338843133355E-15, 1.224646799147353207E-16, -1.000000000000000000 ) ) ;
#120 = APPROVAL_ROLE ( '' ) ;
#121 = PRODUCT ( '55345', '55345', '', ( #34 ) ) ;
#122 = AXIS2_PLACEMENT_3D ( 'NONE', #81, #208, #30 ) ;
#123 = DIRECTION ( 'NONE',  ( 4.275831445896959482E-31, 1.000000000000000000, 1.224646799147353454E-16 ) ) ;
#124 = PRODUCT_DEFINITION_FORMATION_WITH_SPECIFIED_SOURCE ( 'ANY', '', #121, .NOT_KNOWN. ) ;
#125 = PERSON_AND_ORGANIZATION_ROLE ( 'creator' ) ;
#126 = APPROVAL ( #154, 'UNSPECIFIED' ) ;
#127 = CARTESIAN_POINT ( 'NONE',  ( 0.0000000000000000000, 0.0000000000000000000, 0.0000000000000000000 ) ) ;
#128 = CONICAL_SURFACE ( 'NONE', #28, 0.7499999999999973355, 0.5235987755982919323 ) ;
#129 = APPLICATION_PROTOCOL_DEFINITION ( 'international standard', 'config_control_design', 1994, #117 ) ;
#130 = FACE_BOUND ( 'NONE', #200, .T. ) ;
#131 = PRODUCT_DEFINITION ( 'UNKNOWN', '', #124, #104 ) ;
#132 = PERSON_AND_ORGANIZATION_ROLE ( 'design_owner' ) ;
#133 = CARTESIAN_POINT ( 'NONE',  ( 2.651303308146441167E-14, 0.7499999999999963363, 7.593634480157134270 ) ) ;
#134 = ADVANCED_FACE ( 'NONE', ( #142, #47 ), #20, .T. ) ;
#135 = APPROVAL_STATUS ( 'not_yet_approved' ) ;
#136 = CIRCLE ( 'NONE', #39, 0.4649999999999984146 ) ;
#137 = EDGE_CURVE ( 'NONE', #56, #56, #9, .T. ) ;
#138 = DIRECTION ( 'NONE',  ( -3.491481338843133355E-15, 1.224646799147353207E-16, -1.000000000000000000 ) ) ;
#139 = FACE_OUTER_BOUND ( 'NONE', #27, .T. ) ;
#140 = ORGANIZATION ( 'UNSPECIFIED', 'UNSPECIFIED', '' ) ;
#141 = CC_DESIGN_PERSON_AND_ORGANIZATION_ASSIGNMENT ( #48, #125, ( #131 ) ) ;
#142 = FACE_OUTER_BOUND ( 'NONE', #58, .T. ) ;
#143 = PLANE ( 'NONE',  #84 ) ;
#144 = LOCAL_TIME ( 7, 14, 49.00000000000000000, #178 ) ;
#145 = DIRECTION ( 'NONE',  ( -3.491481338843133355E-15, 1.224646799147353207E-16, -1.000000000000000000 ) ) ;
#146 = PERSON_AND_ORGANIZATION_ROLE ( 'design_supplier' ) ;
#147 = LOCAL_TIME ( 7, 14, 49.00000000000000000, #89 ) ;
#148 = PRODUCT_RELATED_PRODUCT_CATEGORY ( 'detail', '', ( #121 ) ) ;
#149 = DIRECTION ( 'NONE',  ( 3.491481338843133355E-15, -1.224646799147353207E-16, 1.000000000000000000 ) ) ;
#150 = DIRECTION ( 'NONE',  ( 0.0000000000000000000, 1.000000000000000000, 0.0000000000000000000 ) ) ;
#151 = ORIENTED_EDGE ( 'NONE', *, *, #118, .F. ) ;
#152 = EDGE_CURVE ( 'NONE', #42, #42, #192, .T. ) ;
#153 = APPROVAL_PERSON_ORGANIZATION ( #169, #126, #120 ) ;
#154 = APPROVAL_STATUS ( 'not_yet_approved' ) ;
#155 = CARTESIAN_POINT ( 'NONE',  ( 2.478951750578624051E-14, 1.097081191077271597E-31, 7.099999999999998757 ) ) ;
#156 = CIRCLE ( 'NONE', #114, 0.4649999999999976930 ) ;
#157 = DIRECTION ( 'NONE',  ( -3.491481338843133355E-15, 1.224646799147353207E-16, -1.000000000000000000 ) ) ;
#158 = COORDINATED_UNIVERSAL_TIME_OFFSET ( 1, 0, .AHEAD. ) ;
#159 = PERSON_AND_ORGANIZATION ( #116, #140 ) ;
#160 = AXIS2_PLACEMENT_3D ( 'NONE', #172, #8, #176 ) ;
#161 = CARTESIAN_POINT ( 'NONE',  ( 1.047444401652940007E-13, -3.673940397442059178E-15, 30.00000000000000000 ) ) ;
#162 = PRODUCT_DEFINITION_SHAPE ( 'NONE', 'NONE',  #131 ) ;
#163 = CARTESIAN_POINT ( 'NONE',  ( 1.040461438975253740E-13, 0.7499999999999962252, 29.80000000000000071 ) ) ;
#164 = EDGE_LOOP ( 'NONE', ( #217 ) ) ;
#165 = ADVANCED_FACE ( 'NONE', ( #139, #205 ), #222, .T. ) ;
#166 = FACE_OUTER_BOUND ( 'NONE', #110, .T. ) ;
#167 = EDGE_LOOP ( 'NONE', ( #80 ) ) ;
#168 = CC_DESIGN_PERSON_AND_ORGANIZATION_ASSIGNMENT ( #55, #132, ( #121 ) ) ;
#169 = PERSON_AND_ORGANIZATION ( #116, #140 ) ;
#170 = DIRECTION ( 'NONE',  ( 4.141784826639237842E-31, 1.000000000000000000, 1.165808787618827870E-16 ) ) ;
#171 =( LENGTH_UNIT ( ) NAMED_UNIT ( * ) SI_UNIT ( .MILLI., .METRE. ) );
#172 = CARTESIAN_POINT ( 'NONE',  ( 2.478951750578624051E-14, 1.097081191077271597E-31, 7.099999999999998757 ) ) ;
#173 = LOCAL_TIME ( 7, 14, 49.00000000000000000, #201 ) ;
#174 = APPROVAL_STATUS ( 'not_yet_approved' ) ;
#175 = CALENDAR_DATE ( 2021, 8, 10 ) ;
#176 = DIRECTION ( 'NONE',  ( -4.275831445896958607E-31, -1.000000000000000000, -1.224646799147353207E-16 ) ) ;
#177 = APPLICATION_CONTEXT ( 'configuration controlled 3d designs of mechanical parts and assemblies' ) ;
#178 = COORDINATED_UNIVERSAL_TIME_OFFSET ( 1, 0, .AHEAD. ) ;
#179 = APPROVAL ( #174, 'UNSPECIFIED' ) ;
#180 = EDGE_LOOP ( 'NONE', ( #7 ) ) ;
#181 = CARTESIAN_POINT ( 'NONE',  ( 2.651303308146441167E-14, -9.299520160019409985E-16, 7.593634480157134270 ) ) ;
#182 = CARTESIAN_POINT ( 'NONE',  ( 1.047444401652940007E-13, 0.5499999999999963807, 30.00000000000000000 ) ) ;
#183 = CALENDAR_DATE ( 2021, 8, 10 ) ;
#184 = CLOSED_SHELL ( 'NONE', ( #18, #69, #134, #165, #215 ) ) ;
#185 = CC_DESIGN_APPROVAL ( #126, ( #124 ) ) ;
#186 = ORIENTED_EDGE ( 'NONE', *, *, #152, .F. ) ;
#187 = CLOSED_SHELL ( 'NONE', ( #209, #68, #206 ) ) ;
#188 = DIRECTION ( 'NONE',  ( 0.0000000000000000000, 1.000000000000000000, 0.0000000000000000000 ) ) ;
#189 = CC_DESIGN_PERSON_AND_ORGANIZATION_ASSIGNMENT ( #159, #107, ( #111 ) ) ;
#190 = PERSON_AND_ORGANIZATION_ROLE ( 'creator' ) ;
#191 = UNCERTAINTY_MEASURE_WITH_UNIT (LENGTH_MEASURE( 1.000000000000000082E-05 ), #171, 'distance_accuracy_value', 'NONE');
#192 = CIRCLE ( 'NONE', #98, 0.4649999999999984146 ) ;
#193 = AXIS2_PLACEMENT_3D ( 'NONE', #109, #22, #94 ) ;
#194 = DIRECTION ( 'NONE',  ( 0.0000000000000000000, 1.000000000000000000, 0.0000000000000000000 ) ) ;
#195 = APPROVAL_DATE_TIME ( #4, #179 ) ;
#196 = VERTEX_POINT ( 'NONE', #23 ) ;
#197 = ORIENTED_EDGE ( 'NONE', *, *, #137, .F. ) ;
#198 = FACE_OUTER_BOUND ( 'NONE', #164, .T. ) ;
#199 = DIRECTION ( 'NONE',  ( -3.491481338843133355E-15, 1.224646799147353207E-16, -1.000000000000000000 ) ) ;
#200 = EDGE_LOOP ( 'NONE', ( #186 ) ) ;
#201 = COORDINATED_UNIVERSAL_TIME_OFFSET ( 1, 0, .AHEAD. ) ;
#202 = DIRECTION ( 'NONE',  ( 0.0000000000000000000, 1.000000000000000000, 0.0000000000000000000 ) ) ;
#203 = ORIENTED_EDGE ( 'NONE', *, *, #75, .F. ) ;
#204 = CC_DESIGN_APPROVAL ( #79, ( #131 ) ) ;
#205 = FACE_BOUND ( 'NONE', #180, .T. ) ;
#206 = ADVANCED_FACE ( 'NONE', ( #32 ), #103, .T. ) ;
#207 = FACE_OUTER_BOUND ( 'NONE', #71, .T. ) ;
#208 = DIRECTION ( 'NONE',  ( -3.491481338843133355E-15, 1.224646799147353207E-16, -1.000000000000000000 ) ) ;
#209 = ADVANCED_FACE ( 'NONE', ( #207 ), #60, .T. ) ;
#210 = DATE_AND_TIME ( #221, #144 ) ;
#211 = SECURITY_CLASSIFICATION_LEVEL ( 'unclassified' ) ;
#212 = CARTESIAN_POINT ( 'NONE',  ( 1.047444401652940007E-13, 4.124339402320052999E-33, 30.00000000000000000 ) ) ;
#213 = APPROVAL_PERSON_ORGANIZATION ( #78, #79, #102 ) ;
#214 = MANIFOLD_SOLID_BREP ( 'Corps-Déplacer/Copier1[1]', #184 ) ;
#215 = ADVANCED_FACE ( 'NONE', ( #31 ), #143, .F. ) ;
#216 = COORDINATED_UNIVERSAL_TIME_OFFSET ( 1, 0, .AHEAD. ) ;
#217 = ORIENTED_EDGE ( 'NONE', *, *, #137, .T. ) ;
#218 = CC_DESIGN_PERSON_AND_ORGANIZATION_ASSIGNMENT ( #115, #190, ( #124 ) ) ;
#219 = DIRECTION ( 'NONE',  ( 0.0000000000000000000, -1.000000000000000000, 0.0000000000000000000 ) ) ;
#220 = ORIENTED_EDGE ( 'NONE', *, *, #108, .T. ) ;
#221 = CALENDAR_DATE ( 2021, 8, 10 ) ;
#222 = CONICAL_SURFACE ( 'NONE', #122, 0.5500000000000000444, 0.7853981633974510546 ) ;
#223 = DIRECTION ( 'NONE',  ( -3.491481338843133355E-15, 1.224646799147353207E-16, -1.000000000000000000 ) ) ;
ENDSEC;
END-ISO-10303-21;
