ISO-10303-21;
HEADER;
FILE_DESCRIPTION (( 'STEP AP203' ),
    '1' );
FILE_NAME ('55344.step',
    '2021-10-08T05:14:49',
    ( '' ),
    ( '' ),
    'SwSTEP 2.0',
    'SolidWorks 2019',
    '' );
FILE_SCHEMA (( 'CONFIG_CONTROL_DESIGN' ));
ENDSEC;

DATA;
#1 = ORIENTED_EDGE ( 'NONE', *, *, #94, .F. ) ;
#2 = CARTESIAN_POINT ( 'NONE',  ( 1.047444401652940007E-13, -3.673940397442059178E-15, 30.00000000000000000 ) ) ;
#3 = FACE_OUTER_BOUND ( 'NONE', #121, .T. ) ;
#4 = CARTESIAN_POINT ( 'NONE',  ( 2.478951750578624367E-14, -8.694992273946207746E-16, 7.099999999999999645 ) ) ;
#5 = APPLICATION_CONTEXT ( 'configuration controlled 3d designs of mechanical parts and assemblies' ) ;
#6 = ADVANCED_FACE ( 'NONE', ( #105, #208 ), #106, .T. ) ;
#7 = ORIENTED_EDGE ( 'NONE', *, *, #68, .F. ) ;
#8 = DIRECTION ( 'NONE',  ( -3.491481338843133355E-15, 1.224646799147353207E-16, -1.000000000000000000 ) ) ;
#9 = FACE_OUTER_BOUND ( 'NONE', #84, .T. ) ;
#10 = APPROVAL_STATUS ( 'not_yet_approved' ) ;
#11 = AXIS2_PLACEMENT_3D ( 'NONE', #183, #89, #71 ) ;
#12 = APPROVAL_STATUS ( 'not_yet_approved' ) ;
#13 = CARTESIAN_POINT ( 'NONE',  ( 2.478951750578624367E-14, 0.4599999999999972999, 7.099999999999999645 ) ) ;
#14 = DATE_AND_TIME ( #145, #218 ) ;
#15 = DIRECTION ( 'NONE',  ( -3.491481338843133355E-15, 1.224646799147353207E-16, -1.000000000000000000 ) ) ;
#16 = FACE_OUTER_BOUND ( 'NONE', #158, .T. ) ;
#17 = AXIS2_PLACEMENT_3D ( 'NONE', #209, #21, #88 ) ;
#18 = LOCAL_TIME ( 7, 14, 49.00000000000000000, #140 ) ;
#19 = ORGANIZATION ( 'UNSPECIFIED', 'UNSPECIFIED', '' ) ;
#20 = PERSON_AND_ORGANIZATION ( #222, #19 ) ;
#21 = DIRECTION ( 'NONE',  ( -3.491481338843133355E-15, 1.224646799147353207E-16, -1.000000000000000000 ) ) ;
#22 = DIRECTION ( 'NONE',  ( -3.491481338843133355E-15, 1.224646799147353207E-16, -1.000000000000000000 ) ) ;
#23 = CC_DESIGN_SECURITY_CLASSIFICATION ( #111, ( #90 ) ) ;
#24 = DIRECTION ( 'NONE',  ( 4.275831445896958607E-31, 1.000000000000000000, 1.224646799147353207E-16 ) ) ;
#25 = FACE_OUTER_BOUND ( 'NONE', #181, .T. ) ;
#26 = PRODUCT_DEFINITION ( 'UNKNOWN', '', #90, #60 ) ;
#27 = VERTEX_POINT ( 'NONE', #191 ) ;
#28 = ADVANCED_BREP_SHAPE_REPRESENTATION ( '55344', ( #137, #210, #113 ), #168 ) ;
#29 = CONICAL_SURFACE ( 'NONE', #195, 0.7499999999999973355, 0.5235987755982932645 ) ;
#30 = SECURITY_CLASSIFICATION_LEVEL ( 'unclassified' ) ;
#31 = CARTESIAN_POINT ( 'NONE',  ( 1.040461438975253740E-13, 0.7499999999999962252, 29.80000000000000071 ) ) ;
#32 = ADVANCED_FACE ( 'NONE', ( #69, #142 ), #104, .T. ) ;
#33 = CC_DESIGN_DATE_AND_TIME_ASSIGNMENT ( #177, #115, ( #26 ) ) ;
#34 = AXIS2_PLACEMENT_3D ( 'NONE', #63, #185, #92 ) ;
#35 = ORIENTED_EDGE ( 'NONE', *, *, #94, .T. ) ;
#36 = DIRECTION ( 'NONE',  ( 0.0000000000000000000, 1.000000000000000000, 0.0000000000000000000 ) ) ;
#37 = DIRECTION ( 'NONE',  ( 0.0000000000000000000, 1.000000000000000000, 0.0000000000000000000 ) ) ;
#38 = EDGE_LOOP ( 'NONE', ( #211 ) ) ;
#39 = CARTESIAN_POINT ( 'NONE',  ( 1.047444401652940007E-13, -3.673940397442059178E-15, 30.00000000000000000 ) ) ;
#40 = UNCERTAINTY_MEASURE_WITH_UNIT (LENGTH_MEASURE( 1.000000000000000082E-05 ), #186, 'distance_accuracy_value', 'NONE');
#41 = CARTESIAN_POINT ( 'NONE',  ( 1.047444401652940007E-13, 4.124339402320052999E-33, 30.00000000000000000 ) ) ;
#42 = FACE_OUTER_BOUND ( 'NONE', #52, .T. ) ;
#43 = CIRCLE ( 'NONE', #167, 0.5500000000000000444 ) ;
#44 = CC_DESIGN_APPROVAL ( #122, ( #26 ) ) ;
#45 = CC_DESIGN_DATE_AND_TIME_ASSIGNMENT ( #14, #164, ( #111 ) ) ;
#46 = APPLICATION_PROTOCOL_DEFINITION ( 'international standard', 'config_control_design', 1994, #170 ) ;
#47 = PRODUCT_RELATED_PRODUCT_CATEGORY ( 'detail', '', ( #133 ) ) ;
#48 = CALENDAR_DATE ( 2021, 8, 10 ) ;
#49 = DATE_AND_TIME ( #87, #18 ) ;
#50 = ORIENTED_EDGE ( 'NONE', *, *, #114, .T. ) ;
#51 = AXIS2_PLACEMENT_3D ( 'NONE', #184, #22, #103 ) ;
#52 = EDGE_LOOP ( 'NONE', ( #50 ) ) ;
#53 = LOCAL_TIME ( 7, 14, 49.00000000000000000, #143 ) ;
#54 = ORIENTED_EDGE ( 'NONE', *, *, #214, .F. ) ;
#55 = EDGE_LOOP ( 'NONE', ( #141 ) ) ;
#56 = PERSON_AND_ORGANIZATION ( #222, #19 ) ;
#57 = CARTESIAN_POINT ( 'NONE',  ( 9.650310737470173450E-16, 0.4599999999999976330, 0.2763958847526793994 ) ) ;
#58 = APPROVAL_DATE_TIME ( #188, #86 ) ;
#59 = CC_DESIGN_PERSON_AND_ORGANIZATION_ASSIGNMENT ( #83, #221, ( #133 ) ) ;
#60 = DESIGN_CONTEXT ( 'detailed design', #5, 'design' ) ;
#61 = VERTEX_POINT ( 'NONE', #73 ) ;
#62 = CARTESIAN_POINT ( 'NONE',  ( 9.650310737470171478E-16, -3.384873355598694895E-17, 0.2763958847526793439 ) ) ;
#63 = CARTESIAN_POINT ( 'NONE',  ( 2.478951750578624367E-14, 3.449447500122245676E-33, 7.099999999999999645 ) ) ;
#64 = PERSON_AND_ORGANIZATION_ROLE ( 'creator' ) ;
#65 = EDGE_CURVE ( 'NONE', #169, #169, #102, .T. ) ;
#66 = AXIS2_PLACEMENT_3D ( 'NONE', #95, #8, #81 ) ;
#67 = APPROVAL_STATUS ( 'not_yet_approved' ) ;
#68 = EDGE_CURVE ( 'NONE', #108, #108, #206, .T. ) ;
#69 = FACE_OUTER_BOUND ( 'NONE', #163, .T. ) ;
#70 = PLANE ( 'NONE',  #11 ) ;
#71 = DIRECTION ( 'NONE',  ( -4.275831445896958607E-31, -1.000000000000000000, -1.224646799147353207E-16 ) ) ;
#72 = COORDINATED_UNIVERSAL_TIME_OFFSET ( 1, 0, .AHEAD. ) ;
#73 = CARTESIAN_POINT ( 'NONE',  ( 1.047444401652940007E-13, 0.5499999999999963807, 30.00000000000000000 ) ) ;
#74 = COORDINATED_UNIVERSAL_TIME_OFFSET ( 1, 0, .AHEAD. ) ;
#75 = DIRECTION ( 'NONE',  ( -4.186804226928794842E-31, -1.000000000000000000, -1.178480622266858626E-16 ) ) ;
#76 = CLOSED_SHELL ( 'NONE', ( #166, #129, #32, #6, #153 ) ) ;
#77 = ADVANCED_FACE ( 'NONE', ( #3 ), #70, .T. ) ;
#78 = DIRECTION ( 'NONE',  ( -3.491481338843133355E-15, 1.224646799147353207E-16, -1.000000000000000000 ) ) ;
#79 = APPROVAL ( #67, 'UNSPECIFIED' ) ;
#80 = DIRECTION ( 'NONE',  ( 4.275831445896958607E-31, 1.000000000000000000, 1.224646799147353207E-16 ) ) ;
#81 = DIRECTION ( 'NONE',  ( 0.0000000000000000000, 1.000000000000000000, 0.0000000000000000000 ) ) ;
#82 = CLOSED_SHELL ( 'NONE', ( #160, #101, #77 ) ) ;
#83 = PERSON_AND_ORGANIZATION ( #222, #19 ) ;
#84 = EDGE_LOOP ( 'NONE', ( #1 ) ) ;
#85 = PRODUCT_DEFINITION_SHAPE ( 'NONE', 'NONE',  #26 ) ;
#86 = APPROVAL ( #12, 'UNSPECIFIED' ) ;
#87 = CALENDAR_DATE ( 2021, 8, 10 ) ;
#88 = DIRECTION ( 'NONE',  ( 4.275831445896959482E-31, 1.000000000000000000, 1.224646799147353454E-16 ) ) ;
#89 = DIRECTION ( 'NONE',  ( 3.491481338843133355E-15, -1.224646799147353207E-16, 1.000000000000000000 ) ) ;
#90 = PRODUCT_DEFINITION_FORMATION_WITH_SPECIFIED_SOURCE ( 'ANY', '', #133, .NOT_KNOWN. ) ;
#91 = CARTESIAN_POINT ( 'NONE',  ( 2.478951750578624367E-14, 0.4599999999999972999, 7.099999999999999645 ) ) ;
#92 = DIRECTION ( 'NONE',  ( -4.275831445896958607E-31, -1.000000000000000000, -1.224646799147353207E-16 ) ) ;
#93 = FACE_BOUND ( 'NONE', #55, .T. ) ;
#94 = EDGE_CURVE ( 'NONE', #61, #61, #43, .T. ) ;
#95 = CARTESIAN_POINT ( 'NONE',  ( 2.654327019682718987E-14, -9.310125912406658456E-16, 7.602294734194979142 ) ) ;
#96 = DIRECTION ( 'NONE',  ( 4.186804226928794842E-31, 1.000000000000000000, 1.178480622266858626E-16 ) ) ;
#97 = DIRECTION ( 'NONE',  ( 1.000000000000000000, 0.0000000000000000000, 0.0000000000000000000 ) ) ;
#98 = EDGE_CURVE ( 'NONE', #27, #27, #139, .T. ) ;
#99 = LOCAL_TIME ( 7, 14, 49.00000000000000000, #135 ) ;
#100 = ORIENTED_EDGE ( 'NONE', *, *, #68, .T. ) ;
#101 = ADVANCED_FACE ( 'NONE', ( #16, #171 ), #151, .T. ) ;
#102 = CIRCLE ( 'NONE', #174, 0.4599999999999981881 ) ;
#103 = DIRECTION ( 'NONE',  ( 0.0000000000000000000, 1.000000000000000000, 0.0000000000000000000 ) ) ;
#104 = CYLINDRICAL_SURFACE ( 'NONE', #17, 0.7499999999999985567 ) ;
#105 = FACE_OUTER_BOUND ( 'NONE', #161, .T. ) ;
#106 = CONICAL_SURFACE ( 'NONE', #217, 0.5500000000000000444, 0.7853981633974510546 ) ;
#107 = DIRECTION ( 'NONE',  ( 3.491481338843133355E-15, -1.224646799147353207E-16, 1.000000000000000000 ) ) ;
#108 = VERTEX_POINT ( 'NONE', #31 ) ;
#109 = CARTESIAN_POINT ( 'NONE',  ( 2.654327019682718987E-14, -9.310125912406658456E-16, 7.602294734194979142 ) ) ;
#110 =( NAMED_UNIT ( * ) SI_UNIT ( $, .STERADIAN. ) SOLID_ANGLE_UNIT ( ) );
#111 = SECURITY_CLASSIFICATION ( '', '', #30 ) ;
#112 = CARTESIAN_POINT ( 'NONE',  ( 0.0000000000000000000, 0.0000000000000000000, 0.0000000000000000000 ) ) ;
#113 = AXIS2_PLACEMENT_3D ( 'NONE', #112, #173, #97 ) ;
#114 = EDGE_CURVE ( 'NONE', #172, #172, #212, .T. ) ;
#115 = DATE_TIME_ROLE ( 'creation_date' ) ;
#116 = ORIENTED_EDGE ( 'NONE', *, *, #114, .F. ) ;
#117 = ORIENTED_EDGE ( 'NONE', *, *, #65, .T. ) ;
#118 = CC_DESIGN_APPROVAL ( #79, ( #90 ) ) ;
#119 = APPROVAL_DATE_TIME ( #49, #79 ) ;
#120 = DIRECTION ( 'NONE',  ( -3.491481338843133355E-15, 1.224646799147353207E-16, -1.000000000000000000 ) ) ;
#121 = EDGE_LOOP ( 'NONE', ( #54 ) ) ;
#122 = APPROVAL ( #10, 'UNSPECIFIED' ) ;
#123 = APPROVAL_ROLE ( '' ) ;
#124 = DIRECTION ( 'NONE',  ( -3.491481338843133355E-15, 1.224646799147353207E-16, -1.000000000000000000 ) ) ;
#125 = AXIS2_PLACEMENT_3D ( 'NONE', #149, #107, #75 ) ;
#126 = SHAPE_DEFINITION_REPRESENTATION ( #85, #28 ) ;
#127 = CC_DESIGN_PERSON_AND_ORGANIZATION_ASSIGNMENT ( #20, #159, ( #90 ) ) ;
#128 = DATE_AND_TIME ( #138, #53 ) ;
#129 = ADVANCED_FACE ( 'NONE', ( #93, #165 ), #29, .T. ) ;
#130 = VERTEX_POINT ( 'NONE', #13 ) ;
#131 = CARTESIAN_POINT ( 'NONE',  ( 2.478951750578624367E-14, -8.694992273946207746E-16, 7.099999999999999645 ) ) ;
#132 = PLANE ( 'NONE',  #34 ) ;
#133 = PRODUCT ( '55344', '55344', '', ( #192 ) ) ;
#134 = CC_DESIGN_PERSON_AND_ORGANIZATION_ASSIGNMENT ( #204, #182, ( #111 ) ) ;
#135 = COORDINATED_UNIVERSAL_TIME_OFFSET ( 1, 0, .AHEAD. ) ;
#136 = CIRCLE ( 'NONE', #154, 0.4599999999999981881 ) ;
#137 = MANIFOLD_SOLID_BREP ( 'Corps-Déplacer/Copier1[1]', #76 ) ;
#138 = CALENDAR_DATE ( 2021, 8, 10 ) ;
#139 = CIRCLE ( 'NONE', #66, 0.7499999999999973355 ) ;
#140 = COORDINATED_UNIVERSAL_TIME_OFFSET ( 1, 0, .AHEAD. ) ;
#141 = ORIENTED_EDGE ( 'NONE', *, *, #65, .F. ) ;
#142 = FACE_OUTER_BOUND ( 'NONE', #178, .T. ) ;
#143 = COORDINATED_UNIVERSAL_TIME_OFFSET ( 1, 0, .AHEAD. ) ;
#144 = AXIS2_PLACEMENT_3D ( 'NONE', #62, #150, #96 ) ;
#145 = CALENDAR_DATE ( 2021, 8, 10 ) ;
#146 = ORIENTED_EDGE ( 'NONE', *, *, #214, .T. ) ;
#147 = PLANE ( 'NONE',  #193 ) ;
#148 = CALENDAR_DATE ( 2021, 8, 10 ) ;
#149 = CARTESIAN_POINT ( 'NONE',  ( 9.650310737470171478E-16, -3.384873355598694895E-17, 0.2763958847526793439 ) ) ;
#150 = DIRECTION ( 'NONE',  ( -3.491481338843133355E-15, 1.224646799147353207E-16, -1.000000000000000000 ) ) ;
#151 = CYLINDRICAL_SURFACE ( 'NONE', #189, 0.4599999999999979661 ) ;
#152 = APPROVAL_DATE_TIME ( #128, #122 ) ;
#153 = ADVANCED_FACE ( 'NONE', ( #9 ), #147, .F. ) ;
#154 = AXIS2_PLACEMENT_3D ( 'NONE', #131, #215, #213 ) ;
#155 = EDGE_LOOP ( 'NONE', ( #146 ) ) ;
#156 = PERSON_AND_ORGANIZATION ( #222, #19 ) ;
#157 = CONICAL_SURFACE ( 'NONE', #125, 0.4599999999999976885, 1.029744258676649649 ) ;
#158 = EDGE_LOOP ( 'NONE', ( #116 ) ) ;
#159 = PERSON_AND_ORGANIZATION_ROLE ( 'creator' ) ;
#160 = ADVANCED_FACE ( 'NONE', ( #42 ), #157, .T. ) ;
#161 = EDGE_LOOP ( 'NONE', ( #7 ) ) ;
#162 = APPROVAL_PERSON_ORGANIZATION ( #194, #79, #223 ) ;
#163 = EDGE_LOOP ( 'NONE', ( #180 ) ) ;
#164 = DATE_TIME_ROLE ( 'classification_date' ) ;
#165 = FACE_OUTER_BOUND ( 'NONE', #38, .T. ) ;
#166 = ADVANCED_FACE ( 'NONE', ( #25 ), #132, .F. ) ;
#167 = AXIS2_PLACEMENT_3D ( 'NONE', #39, #78, #216 ) ;
#168 =( GEOMETRIC_REPRESENTATION_CONTEXT ( 3 ) GLOBAL_UNCERTAINTY_ASSIGNED_CONTEXT ( ( #40 ) ) GLOBAL_UNIT_ASSIGNED_CONTEXT ( ( #186, #202, #110 ) ) REPRESENTATION_CONTEXT ( 'NONE', 'WORKASPACE' ) );
#169 = VERTEX_POINT ( 'NONE', #91 ) ;
#170 = APPLICATION_CONTEXT ( 'configuration controlled 3d designs of mechanical parts and assemblies' ) ;
#171 = FACE_OUTER_BOUND ( 'NONE', #155, .T. ) ;
#172 = VERTEX_POINT ( 'NONE', #57 ) ;
#173 = DIRECTION ( 'NONE',  ( 0.0000000000000000000, 0.0000000000000000000, 1.000000000000000000 ) ) ;
#174 = AXIS2_PLACEMENT_3D ( 'NONE', #4, #196, #36 ) ;
#175 = CC_DESIGN_PERSON_AND_ORGANIZATION_ASSIGNMENT ( #220, #64, ( #26 ) ) ;
#176 = APPROVAL_PERSON_ORGANIZATION ( #56, #86, #123 ) ;
#177 = DATE_AND_TIME ( #48, #99 ) ;
#178 = EDGE_LOOP ( 'NONE', ( #100 ) ) ;
#179 = APPLICATION_PROTOCOL_DEFINITION ( 'international standard', 'config_control_design', 1994, #5 ) ;
#180 = ORIENTED_EDGE ( 'NONE', *, *, #98, .F. ) ;
#181 = EDGE_LOOP ( 'NONE', ( #117 ) ) ;
#182 = PERSON_AND_ORGANIZATION_ROLE ( 'classification_officer' ) ;
#183 = CARTESIAN_POINT ( 'NONE',  ( 2.478951750578624367E-14, 3.449447500122245676E-33, 7.099999999999999645 ) ) ;
#184 = CARTESIAN_POINT ( 'NONE',  ( 1.040461438975253740E-13, -3.649447461459112464E-15, 29.80000000000000071 ) ) ;
#185 = DIRECTION ( 'NONE',  ( 3.491481338843133355E-15, -1.224646799147353207E-16, 1.000000000000000000 ) ) ;
#186 =( LENGTH_UNIT ( ) NAMED_UNIT ( * ) SI_UNIT ( .MILLI., .METRE. ) );
#187 = DIRECTION ( 'NONE',  ( 3.491481338843133355E-15, -1.224646799147353207E-16, 1.000000000000000000 ) ) ;
#188 = DATE_AND_TIME ( #148, #207 ) ;
#189 = AXIS2_PLACEMENT_3D ( 'NONE', #219, #15, #80 ) ;
#190 = APPROVAL_PERSON_ORGANIZATION ( #156, #122, #197 ) ;
#191 = CARTESIAN_POINT ( 'NONE',  ( 2.654327019682718987E-14, 0.7499999999999963363, 7.602294734194979142 ) ) ;
#192 = MECHANICAL_CONTEXT ( 'NONE', #170, 'mechanical' ) ;
#193 = AXIS2_PLACEMENT_3D ( 'NONE', #41, #124, #24 ) ;
#194 = PERSON_AND_ORGANIZATION ( #222, #19 ) ;
#195 = AXIS2_PLACEMENT_3D ( 'NONE', #109, #187, #200 ) ;
#196 = DIRECTION ( 'NONE',  ( -3.491481338843133355E-15, 1.224646799147353207E-16, -1.000000000000000000 ) ) ;
#197 = APPROVAL_ROLE ( '' ) ;
#198 = PERSON_AND_ORGANIZATION ( #222, #19 ) ;
#199 = EDGE_LOOP ( 'NONE', ( #35 ) ) ;
#200 = DIRECTION ( 'NONE',  ( 0.0000000000000000000, -1.000000000000000000, 0.0000000000000000000 ) ) ;
#201 = PERSON_AND_ORGANIZATION_ROLE ( 'design_supplier' ) ;
#202 =( NAMED_UNIT ( * ) PLANE_ANGLE_UNIT ( ) SI_UNIT ( $, .RADIAN. ) );
#203 = CC_DESIGN_APPROVAL ( #86, ( #111 ) ) ;
#204 = PERSON_AND_ORGANIZATION ( #222, #19 ) ;
#205 = CC_DESIGN_PERSON_AND_ORGANIZATION_ASSIGNMENT ( #198, #201, ( #90 ) ) ;
#206 = CIRCLE ( 'NONE', #51, 0.7499999999999998890 ) ;
#207 = LOCAL_TIME ( 7, 14, 49.00000000000000000, #74 ) ;
#208 = FACE_BOUND ( 'NONE', #199, .T. ) ;
#209 = CARTESIAN_POINT ( 'NONE',  ( 0.0000000000000000000, 0.0000000000000000000, 0.0000000000000000000 ) ) ;
#210 = MANIFOLD_SOLID_BREP ( 'Corps-Déplacer/Copier1[2]', #82 ) ;
#211 = ORIENTED_EDGE ( 'NONE', *, *, #98, .T. ) ;
#212 = CIRCLE ( 'NONE', #144, 0.4599999999999976885 ) ;
#213 = DIRECTION ( 'NONE',  ( 0.0000000000000000000, 1.000000000000000000, 0.0000000000000000000 ) ) ;
#214 = EDGE_CURVE ( 'NONE', #130, #130, #136, .T. ) ;
#215 = DIRECTION ( 'NONE',  ( -3.491481338843133355E-15, 1.224646799147353207E-16, -1.000000000000000000 ) ) ;
#216 = DIRECTION ( 'NONE',  ( 0.0000000000000000000, 1.000000000000000000, 0.0000000000000000000 ) ) ;
#217 = AXIS2_PLACEMENT_3D ( 'NONE', #2, #120, #37 ) ;
#218 = LOCAL_TIME ( 7, 14, 49.00000000000000000, #72 ) ;
#219 = CARTESIAN_POINT ( 'NONE',  ( 0.0000000000000000000, 0.0000000000000000000, 0.0000000000000000000 ) ) ;
#220 = PERSON_AND_ORGANIZATION ( #222, #19 ) ;
#221 = PERSON_AND_ORGANIZATION_ROLE ( 'design_owner' ) ;
#222 = PERSON ( 'UNSPECIFIED', 'UNSPECIFIED', 'UNSPECIFIED', ('UNSPECIFIED'), ('UNSPECIFIED'), ('UNSPECIFIED') ) ;
#223 = APPROVAL_ROLE ( '' ) ;
ENDSEC;
END-ISO-10303-21;
