ISO-10303-21;
HEADER;
FILE_DESCRIPTION (( 'STEP AP203' ),
    '1' );
FILE_NAME ('55342.step',
    '2021-10-08T05:14:47',
    ( '' ),
    ( '' ),
    'SwSTEP 2.0',
    'SolidWorks 2019',
    '' );
FILE_SCHEMA (( 'CONFIG_CONTROL_DESIGN' ));
ENDSEC;

DATA;
#1 = CIRCLE ( 'NONE', #179, 0.5500000000000000444 ) ;
#2 = EDGE_LOOP ( 'NONE', ( #197 ) ) ;
#3 = DIRECTION ( 'NONE',  ( 4.275831445896958607E-31, 1.000000000000000000, 1.224646799147353207E-16 ) ) ;
#4 = AXIS2_PLACEMENT_3D ( 'NONE', #174, #210, #194 ) ;
#5 = ORIENTED_EDGE ( 'NONE', *, *, #104, .F. ) ;
#6 = CARTESIAN_POINT ( 'NONE',  ( 1.047444401652940007E-13, 4.124339402320052999E-33, 30.00000000000000000 ) ) ;
#7 = APPLICATION_PROTOCOL_DEFINITION ( 'international standard', 'config_control_design', 1994, #94 ) ;
#8 = FACE_OUTER_BOUND ( 'NONE', #214, .T. ) ;
#9 = MECHANICAL_CONTEXT ( 'NONE', #94, 'mechanical' ) ;
#10 = ADVANCED_FACE ( 'NONE', ( #195, #89 ), #96, .T. ) ;
#11 = CONICAL_SURFACE ( 'NONE', #91, 0.7499999999999973355, 0.5235987755982930425 ) ;
#12 = DATE_TIME_ROLE ( 'creation_date' ) ;
#13 = AXIS2_PLACEMENT_3D ( 'NONE', #93, #75, #108 ) ;
#14 = DIRECTION ( 'NONE',  ( 3.491481338843133355E-15, -1.224646799147353207E-16, 1.000000000000000000 ) ) ;
#15 = ORIENTED_EDGE ( 'NONE', *, *, #116, .F. ) ;
#16 = EDGE_LOOP ( 'NONE', ( #37 ) ) ;
#17 = AXIS2_PLACEMENT_3D ( 'NONE', #153, #38, #218 ) ;
#18 = DIRECTION ( 'NONE',  ( 3.491481338843133355E-15, -1.224646799147353207E-16, 1.000000000000000000 ) ) ;
#19 = ORIENTED_EDGE ( 'NONE', *, *, #104, .T. ) ;
#20 = CC_DESIGN_PERSON_AND_ORGANIZATION_ASSIGNMENT ( #119, #117, ( #216 ) ) ;
#21 = DIRECTION ( 'NONE',  ( 0.0000000000000000000, 1.000000000000000000, 0.0000000000000000000 ) ) ;
#22 = AXIS2_PLACEMENT_3D ( 'NONE', #72, #14, #212 ) ;
#23 = APPROVAL_STATUS ( 'not_yet_approved' ) ;
#24 = DIRECTION ( 'NONE',  ( 4.275831445896959482E-31, 1.000000000000000000, 1.224646799147353454E-16 ) ) ;
#25 = COORDINATED_UNIVERSAL_TIME_OFFSET ( 1, 0, .AHEAD. ) ;
#26 =( GEOMETRIC_REPRESENTATION_CONTEXT ( 3 ) GLOBAL_UNCERTAINTY_ASSIGNED_CONTEXT ( ( #168 ) ) GLOBAL_UNIT_ASSIGNED_CONTEXT ( ( #128, #113, #186 ) ) REPRESENTATION_CONTEXT ( 'NONE', 'WORKASPACE' ) );
#27 = PERSON_AND_ORGANIZATION_ROLE ( 'creator' ) ;
#28 = SECURITY_CLASSIFICATION_LEVEL ( 'unclassified' ) ;
#29 = DATE_TIME_ROLE ( 'classification_date' ) ;
#30 = APPLICATION_CONTEXT ( 'configuration controlled 3d designs of mechanical parts and assemblies' ) ;
#31 = DATE_AND_TIME ( #137, #40 ) ;
#32 = EDGE_LOOP ( 'NONE', ( #192 ) ) ;
#33 = PERSON ( 'UNSPECIFIED', 'UNSPECIFIED', 'UNSPECIFIED', ('UNSPECIFIED'), ('UNSPECIFIED'), ('UNSPECIFIED') ) ;
#34 = ORIENTED_EDGE ( 'NONE', *, *, #145, .F. ) ;
#35 = DIRECTION ( 'NONE',  ( -4.275831445896958607E-31, -1.000000000000000000, -1.224646799147353207E-16 ) ) ;
#36 = EDGE_LOOP ( 'NONE', ( #5 ) ) ;
#37 = ORIENTED_EDGE ( 'NONE', *, *, #157, .T. ) ;
#38 = DIRECTION ( 'NONE',  ( 0.0000000000000000000, 0.0000000000000000000, 1.000000000000000000 ) ) ;
#39 = CYLINDRICAL_SURFACE ( 'NONE', #167, 0.4499999999999983458 ) ;
#40 = LOCAL_TIME ( 7, 14, 47.00000000000000000, #134 ) ;
#41 = FACE_OUTER_BOUND ( 'NONE', #49, .T. ) ;
#42 = VERTEX_POINT ( 'NONE', #132 ) ;
#43 = CALENDAR_DATE ( 2021, 8, 10 ) ;
#44 = CLOSED_SHELL ( 'NONE', ( #126, #162, #110 ) ) ;
#45 = SECURITY_CLASSIFICATION ( '', '', #28 ) ;
#46 = PERSON_AND_ORGANIZATION ( #33, #61 ) ;
#47 = APPROVAL_ROLE ( '' ) ;
#48 = APPROVAL_DATE_TIME ( #31, #136 ) ;
#49 = EDGE_LOOP ( 'NONE', ( #161 ) ) ;
#50 = APPROVAL_PERSON_ORGANIZATION ( #102, #136, #47 ) ;
#51 = FACE_OUTER_BOUND ( 'NONE', #147, .T. ) ;
#52 = CARTESIAN_POINT ( 'NONE',  ( 2.660374442755273364E-14, -9.331337417181155396E-16, 7.619615242270667110 ) ) ;
#53 = FACE_BOUND ( 'NONE', #106, .T. ) ;
#54 = CC_DESIGN_APPROVAL ( #101, ( #216 ) ) ;
#55 = CARTESIAN_POINT ( 'NONE',  ( 1.047444401652940007E-13, -3.673940397442059178E-15, 30.00000000000000000 ) ) ;
#56 = CC_DESIGN_PERSON_AND_ORGANIZATION_ASSIGNMENT ( #115, #27, ( #216 ) ) ;
#57 = DIRECTION ( 'NONE',  ( 4.275831445896959482E-31, 1.000000000000000000, 1.224646799147353454E-16 ) ) ;
#58 = VERTEX_POINT ( 'NONE', #80 ) ;
#59 = APPROVAL ( #23, 'UNSPECIFIED' ) ;
#60 = DIRECTION ( 'NONE',  ( 0.0000000000000000000, 1.000000000000000000, 0.0000000000000000000 ) ) ;
#61 = ORGANIZATION ( 'UNSPECIFIED', 'UNSPECIFIED', '' ) ;
#62 = DIRECTION ( 'NONE',  ( -3.491481338843133355E-15, 1.224646799147353207E-16, -1.000000000000000000 ) ) ;
#63 = APPROVAL_ROLE ( '' ) ;
#64 = AXIS2_PLACEMENT_3D ( 'NONE', #6, #180, #3 ) ;
#65 = AXIS2_PLACEMENT_3D ( 'NONE', #139, #209, #24 ) ;
#66 = DATE_AND_TIME ( #43, #77 ) ;
#67 = CC_DESIGN_DATE_AND_TIME_ASSIGNMENT ( #66, #29, ( #45 ) ) ;
#68 = MANIFOLD_SOLID_BREP ( 'Corps-Déplacer/Copier1[2]', #44 ) ;
#69 = ADVANCED_FACE ( 'NONE', ( #196 ), #146, .F. ) ;
#70 = CYLINDRICAL_SURFACE ( 'NONE', #65, 0.7499999999999985567 ) ;
#71 = CARTESIAN_POINT ( 'NONE',  ( 9.440521373612123843E-16, -3.311289152216114812E-17, 0.2703872785624036879 ) ) ;
#72 = CARTESIAN_POINT ( 'NONE',  ( 9.440521373612123843E-16, -3.311289152216114812E-17, 0.2703872785624036879 ) ) ;
#73 = AXIS2_PLACEMENT_3D ( 'NONE', #71, #142, #141 ) ;
#74 = CARTESIAN_POINT ( 'NONE',  ( 1.047444401652940007E-13, -3.673940397442059178E-15, 30.00000000000000000 ) ) ;
#75 = DIRECTION ( 'NONE',  ( -3.491481338843133355E-15, 1.224646799147353207E-16, -1.000000000000000000 ) ) ;
#76 = CARTESIAN_POINT ( 'NONE',  ( 2.478951750578624367E-14, -8.694992273946207746E-16, 7.099999999999999645 ) ) ;
#77 = LOCAL_TIME ( 7, 14, 47.00000000000000000, #170 ) ;
#78 = DIRECTION ( 'NONE',  ( -3.491481338843133355E-15, 1.224646799147353207E-16, -1.000000000000000000 ) ) ;
#79 = EDGE_CURVE ( 'NONE', #152, #152, #143, .T. ) ;
#80 = CARTESIAN_POINT ( 'NONE',  ( 2.660374442755273364E-14, 0.7499999999999963363, 7.619615242270667110 ) ) ;
#81 = PRODUCT_DEFINITION_SHAPE ( 'NONE', 'NONE',  #149 ) ;
#82 = PERSON_AND_ORGANIZATION_ROLE ( 'design_owner' ) ;
#83 = COORDINATED_UNIVERSAL_TIME_OFFSET ( 1, 0, .AHEAD. ) ;
#84 = PERSON_AND_ORGANIZATION_ROLE ( 'creator' ) ;
#85 = AXIS2_PLACEMENT_3D ( 'NONE', #76, #78, #201 ) ;
#86 = PERSON_AND_ORGANIZATION ( #33, #61 ) ;
#87 = CALENDAR_DATE ( 2021, 8, 10 ) ;
#88 = EDGE_LOOP ( 'NONE', ( #111 ) ) ;
#89 = FACE_BOUND ( 'NONE', #16, .T. ) ;
#90 = DIRECTION ( 'NONE',  ( -3.491481338843133355E-15, 1.224646799147353207E-16, -1.000000000000000000 ) ) ;
#91 = AXIS2_PLACEMENT_3D ( 'NONE', #52, #18, #92 ) ;
#92 = DIRECTION ( 'NONE',  ( 0.0000000000000000000, -1.000000000000000000, 0.0000000000000000000 ) ) ;
#93 = CARTESIAN_POINT ( 'NONE',  ( 2.660374442755273364E-14, -9.331337417181155396E-16, 7.619615242270667110 ) ) ;
#94 = APPLICATION_CONTEXT ( 'configuration controlled 3d designs of mechanical parts and assemblies' ) ;
#95 = CARTESIAN_POINT ( 'NONE',  ( 2.478951750578624367E-14, -8.694992273946207746E-16, 7.099999999999999645 ) ) ;
#96 = CONICAL_SURFACE ( 'NONE', #222, 0.5500000000000000444, 0.7853981633974510546 ) ;
#97 = AXIS2_PLACEMENT_3D ( 'NONE', #178, #164, #35 ) ;
#98 = VERTEX_POINT ( 'NONE', #202 ) ;
#99 = CARTESIAN_POINT ( 'NONE',  ( 2.478951750578624367E-14, 0.4499999999999981237, 7.099999999999999645 ) ) ;
#100 = CIRCLE ( 'NONE', #123, 0.4499999999999990119 ) ;
#101 = APPROVAL ( #159, 'UNSPECIFIED' ) ;
#102 = PERSON_AND_ORGANIZATION ( #33, #61 ) ;
#103 = CC_DESIGN_APPROVAL ( #136, ( #45 ) ) ;
#104 = EDGE_CURVE ( 'NONE', #58, #58, #223, .T. ) ;
#105 = CC_DESIGN_DATE_AND_TIME_ASSIGNMENT ( #206, #12, ( #149 ) ) ;
#106 = EDGE_LOOP ( 'NONE', ( #176 ) ) ;
#107 = EDGE_LOOP ( 'NONE', ( #34 ) ) ;
#108 = DIRECTION ( 'NONE',  ( 0.0000000000000000000, 1.000000000000000000, 0.0000000000000000000 ) ) ;
#109 = PLANE ( 'NONE',  #97 ) ;
#110 = ADVANCED_FACE ( 'NONE', ( #211 ), #109, .T. ) ;
#111 = ORIENTED_EDGE ( 'NONE', *, *, #79, .F. ) ;
#112 = DIRECTION ( 'NONE',  ( 3.491481338843133355E-15, -1.224646799147353207E-16, 1.000000000000000000 ) ) ;
#113 =( NAMED_UNIT ( * ) PLANE_ANGLE_UNIT ( ) SI_UNIT ( $, .RADIAN. ) );
#114 = APPROVAL_PERSON_ORGANIZATION ( #46, #101, #63 ) ;
#115 = PERSON_AND_ORGANIZATION ( #33, #61 ) ;
#116 = EDGE_CURVE ( 'NONE', #42, #42, #184, .T. ) ;
#117 = PERSON_AND_ORGANIZATION_ROLE ( 'design_supplier' ) ;
#118 = CONICAL_SURFACE ( 'NONE', #22, 0.4499999999999977351, 1.029744258676649649 ) ;
#119 = PERSON_AND_ORGANIZATION ( #33, #61 ) ;
#120 = ORIENTED_EDGE ( 'NONE', *, *, #157, .F. ) ;
#121 = EDGE_LOOP ( 'NONE', ( #15 ) ) ;
#122 = FACE_OUTER_BOUND ( 'NONE', #32, .T. ) ;
#123 = AXIS2_PLACEMENT_3D ( 'NONE', #95, #148, #21 ) ;
#124 = EDGE_LOOP ( 'NONE', ( #120 ) ) ;
#125 = FACE_OUTER_BOUND ( 'NONE', #36, .T. ) ;
#126 = ADVANCED_FACE ( 'NONE', ( #122 ), #118, .T. ) ;
#127 = ADVANCED_BREP_SHAPE_REPRESENTATION ( '55342', ( #151, #68, #17 ), #26 ) ;
#128 =( LENGTH_UNIT ( ) NAMED_UNIT ( * ) SI_UNIT ( .MILLI., .METRE. ) );
#129 = ADVANCED_FACE ( 'NONE', ( #53, #51 ), #11, .T. ) ;
#130 = CARTESIAN_POINT ( 'NONE',  ( 2.478951750578624367E-14, 0.4499999999999981237, 7.099999999999999645 ) ) ;
#131 = CARTESIAN_POINT ( 'NONE',  ( 9.440521373612125815E-16, 0.4499999999999976796, 0.2703872785624037434 ) ) ;
#132 = CARTESIAN_POINT ( 'NONE',  ( 1.040461438975253740E-13, 0.7499999999999962252, 29.80000000000000071 ) ) ;
#133 = CC_DESIGN_PERSON_AND_ORGANIZATION_ASSIGNMENT ( #86, #191, ( #45 ) ) ;
#134 = COORDINATED_UNIVERSAL_TIME_OFFSET ( 1, 0, .AHEAD. ) ;
#135 = CALENDAR_DATE ( 2021, 8, 10 ) ;
#136 = APPROVAL ( #189, 'UNSPECIFIED' ) ;
#137 = CALENDAR_DATE ( 2021, 8, 10 ) ;
#138 = CALENDAR_DATE ( 2021, 8, 10 ) ;
#139 = CARTESIAN_POINT ( 'NONE',  ( 0.0000000000000000000, 0.0000000000000000000, 0.0000000000000000000 ) ) ;
#140 = ADVANCED_FACE ( 'NONE', ( #125, #165 ), #70, .T. ) ;
#141 = DIRECTION ( 'NONE',  ( 4.279844320860545916E-31, 1.000000000000000000, 1.204669080539455507E-16 ) ) ;
#142 = DIRECTION ( 'NONE',  ( -3.491481338843133355E-15, 1.224646799147353207E-16, -1.000000000000000000 ) ) ;
#143 = CIRCLE ( 'NONE', #73, 0.4499999999999977351 ) ;
#144 = CC_DESIGN_SECURITY_CLASSIFICATION ( #45, ( #216 ) ) ;
#145 = EDGE_CURVE ( 'NONE', #169, #169, #100, .T. ) ;
#146 = PLANE ( 'NONE',  #64 ) ;
#147 = EDGE_LOOP ( 'NONE', ( #19 ) ) ;
#148 = DIRECTION ( 'NONE',  ( -3.491481338843133355E-15, 1.224646799147353207E-16, -1.000000000000000000 ) ) ;
#149 = PRODUCT_DEFINITION ( 'UNKNOWN', '', #216, #200 ) ;
#150 = CC_DESIGN_APPROVAL ( #59, ( #149 ) ) ;
#151 = MANIFOLD_SOLID_BREP ( 'Corps-Déplacer/Copier1[1]', #172 ) ;
#152 = VERTEX_POINT ( 'NONE', #131 ) ;
#153 = CARTESIAN_POINT ( 'NONE',  ( 0.0000000000000000000, 0.0000000000000000000, 0.0000000000000000000 ) ) ;
#154 = PLANE ( 'NONE',  #173 ) ;
#155 = LOCAL_TIME ( 7, 14, 47.00000000000000000, #187 ) ;
#156 = PERSON_AND_ORGANIZATION ( #33, #61 ) ;
#157 = EDGE_CURVE ( 'NONE', #98, #98, #1, .T. ) ;
#158 = APPROVAL_DATE_TIME ( #208, #101 ) ;
#159 = APPROVAL_STATUS ( 'not_yet_approved' ) ;
#160 = APPROVAL_PERSON_ORGANIZATION ( #156, #59, #221 ) ;
#161 = ORIENTED_EDGE ( 'NONE', *, *, #145, .T. ) ;
#162 = ADVANCED_FACE ( 'NONE', ( #166, #41 ), #39, .T. ) ;
#163 = DIRECTION ( 'NONE',  ( 0.0000000000000000000, 1.000000000000000000, 0.0000000000000000000 ) ) ;
#164 = DIRECTION ( 'NONE',  ( 3.491481338843133355E-15, -1.224646799147353207E-16, 1.000000000000000000 ) ) ;
#165 = FACE_OUTER_BOUND ( 'NONE', #2, .T. ) ;
#166 = FACE_OUTER_BOUND ( 'NONE', #88, .T. ) ;
#167 = AXIS2_PLACEMENT_3D ( 'NONE', #203, #215, #57 ) ;
#168 = UNCERTAINTY_MEASURE_WITH_UNIT (LENGTH_MEASURE( 1.000000000000000082E-05 ), #128, 'distance_accuracy_value', 'NONE');
#169 = VERTEX_POINT ( 'NONE', #99 ) ;
#170 = COORDINATED_UNIVERSAL_TIME_OFFSET ( 1, 0, .AHEAD. ) ;
#171 = SHAPE_DEFINITION_REPRESENTATION ( #81, #127 ) ;
#172 = CLOSED_SHELL ( 'NONE', ( #175, #129, #140, #10, #69 ) ) ;
#173 = AXIS2_PLACEMENT_3D ( 'NONE', #219, #112, #183 ) ;
#174 = CARTESIAN_POINT ( 'NONE',  ( 1.040461438975253740E-13, -3.649447461459112464E-15, 29.80000000000000071 ) ) ;
#175 = ADVANCED_FACE ( 'NONE', ( #8 ), #154, .F. ) ;
#176 = ORIENTED_EDGE ( 'NONE', *, *, #217, .F. ) ;
#177 = ORIENTED_EDGE ( 'NONE', *, *, #217, .T. ) ;
#178 = CARTESIAN_POINT ( 'NONE',  ( 2.478951750578624367E-14, 3.374459510989159091E-33, 7.099999999999999645 ) ) ;
#179 = AXIS2_PLACEMENT_3D ( 'NONE', #55, #62, #60 ) ;
#180 = DIRECTION ( 'NONE',  ( -3.491481338843133355E-15, 1.224646799147353207E-16, -1.000000000000000000 ) ) ;
#181 = CC_DESIGN_PERSON_AND_ORGANIZATION_ASSIGNMENT ( #182, #82, ( #188 ) ) ;
#182 = PERSON_AND_ORGANIZATION ( #33, #61 ) ;
#183 = DIRECTION ( 'NONE',  ( -4.275831445896958607E-31, -1.000000000000000000, -1.224646799147353207E-16 ) ) ;
#184 = CIRCLE ( 'NONE', #4, 0.7499999999999998890 ) ;
#185 = APPLICATION_PROTOCOL_DEFINITION ( 'international standard', 'config_control_design', 1994, #30 ) ;
#186 =( NAMED_UNIT ( * ) SI_UNIT ( $, .STERADIAN. ) SOLID_ANGLE_UNIT ( ) );
#187 = COORDINATED_UNIVERSAL_TIME_OFFSET ( 1, 0, .AHEAD. ) ;
#188 = PRODUCT ( '55342', '55342', '', ( #9 ) ) ;
#189 = APPROVAL_STATUS ( 'not_yet_approved' ) ;
#190 = DATE_AND_TIME ( #135, #205 ) ;
#191 = PERSON_AND_ORGANIZATION_ROLE ( 'classification_officer' ) ;
#192 = ORIENTED_EDGE ( 'NONE', *, *, #79, .T. ) ;
#193 = LOCAL_TIME ( 7, 14, 47.00000000000000000, #83 ) ;
#194 = DIRECTION ( 'NONE',  ( 0.0000000000000000000, 1.000000000000000000, 0.0000000000000000000 ) ) ;
#195 = FACE_OUTER_BOUND ( 'NONE', #121, .T. ) ;
#196 = FACE_OUTER_BOUND ( 'NONE', #124, .T. ) ;
#197 = ORIENTED_EDGE ( 'NONE', *, *, #116, .T. ) ;
#198 = PRODUCT_RELATED_PRODUCT_CATEGORY ( 'detail', '', ( #188 ) ) ;
#199 = VERTEX_POINT ( 'NONE', #130 ) ;
#200 = DESIGN_CONTEXT ( 'detailed design', #30, 'design' ) ;
#201 = DIRECTION ( 'NONE',  ( 0.0000000000000000000, 1.000000000000000000, 0.0000000000000000000 ) ) ;
#202 = CARTESIAN_POINT ( 'NONE',  ( 1.047444401652940007E-13, 0.5499999999999963807, 30.00000000000000000 ) ) ;
#203 = CARTESIAN_POINT ( 'NONE',  ( 0.0000000000000000000, 0.0000000000000000000, 0.0000000000000000000 ) ) ;
#204 = PERSON_AND_ORGANIZATION ( #33, #61 ) ;
#205 = LOCAL_TIME ( 7, 14, 47.00000000000000000, #25 ) ;
#206 = DATE_AND_TIME ( #138, #155 ) ;
#207 = APPROVAL_DATE_TIME ( #190, #59 ) ;
#208 = DATE_AND_TIME ( #87, #193 ) ;
#209 = DIRECTION ( 'NONE',  ( -3.491481338843133355E-15, 1.224646799147353207E-16, -1.000000000000000000 ) ) ;
#210 = DIRECTION ( 'NONE',  ( -3.491481338843133355E-15, 1.224646799147353207E-16, -1.000000000000000000 ) ) ;
#211 = FACE_OUTER_BOUND ( 'NONE', #107, .T. ) ;
#212 = DIRECTION ( 'NONE',  ( -4.279844320860545916E-31, -1.000000000000000000, -1.204669080539455507E-16 ) ) ;
#213 = CC_DESIGN_PERSON_AND_ORGANIZATION_ASSIGNMENT ( #204, #84, ( #149 ) ) ;
#214 = EDGE_LOOP ( 'NONE', ( #177 ) ) ;
#215 = DIRECTION ( 'NONE',  ( -3.491481338843133355E-15, 1.224646799147353207E-16, -1.000000000000000000 ) ) ;
#216 = PRODUCT_DEFINITION_FORMATION_WITH_SPECIFIED_SOURCE ( 'ANY', '', #188, .NOT_KNOWN. ) ;
#217 = EDGE_CURVE ( 'NONE', #199, #199, #220, .T. ) ;
#218 = DIRECTION ( 'NONE',  ( 1.000000000000000000, 0.0000000000000000000, 0.0000000000000000000 ) ) ;
#219 = CARTESIAN_POINT ( 'NONE',  ( 2.478951750578624367E-14, 3.374459510989159091E-33, 7.099999999999999645 ) ) ;
#220 = CIRCLE ( 'NONE', #85, 0.4499999999999990119 ) ;
#221 = APPROVAL_ROLE ( '' ) ;
#222 = AXIS2_PLACEMENT_3D ( 'NONE', #74, #90, #163 ) ;
#223 = CIRCLE ( 'NONE', #13, 0.7499999999999973355 ) ;
ENDSEC;
END-ISO-10303-21;
