ISO-10303-21;
HEADER;
FILE_DESCRIPTION (( 'STEP AP203' ),
    '1' );
FILE_NAME ('55341.step',
    '2021-10-08T05:14:47',
    ( '' ),
    ( '' ),
    'SwSTEP 2.0',
    'SolidWorks 2019',
    '' );
FILE_SCHEMA (( 'CONFIG_CONTROL_DESIGN' ));
ENDSEC;

DATA;
#1 = CARTESIAN_POINT ( 'NONE',  ( 1.047444401652940007E-13, -3.673940397442059178E-15, 30.00000000000000000 ) ) ;
#2 = LOCAL_TIME ( 7, 14, 47.00000000000000000, #69 ) ;
#3 = DIRECTION ( 'NONE',  ( -3.491481338843133355E-15, 1.224646799147353207E-16, -1.000000000000000000 ) ) ;
#4 = CALENDAR_DATE ( 2021, 8, 10 ) ;
#5 = AXIS2_PLACEMENT_3D ( 'NONE', #186, #64, #29 ) ;
#6 = DATE_TIME_ROLE ( 'classification_date' ) ;
#7 = APPROVAL ( #90, 'UNSPECIFIED' ) ;
#8 = DESIGN_CONTEXT ( 'detailed design', #200, 'design' ) ;
#9 = AXIS2_PLACEMENT_3D ( 'NONE', #17, #83, #223 ) ;
#10 = DIRECTION ( 'NONE',  ( 0.0000000000000000000, 1.000000000000000000, 0.0000000000000000000 ) ) ;
#11 = EDGE_LOOP ( 'NONE', ( #60 ) ) ;
#12 = CARTESIAN_POINT ( 'NONE',  ( 1.040461438975253740E-13, -3.649447461459112464E-15, 29.80000000000000071 ) ) ;
#13 = VERTEX_POINT ( 'NONE', #100 ) ;
#14 = AXIS2_PLACEMENT_3D ( 'NONE', #215, #199, #96 ) ;
#15 = DIRECTION ( 'NONE',  ( -3.491481338843133355E-15, 1.224646799147353207E-16, -1.000000000000000000 ) ) ;
#16 = VERTEX_POINT ( 'NONE', #79 ) ;
#17 = CARTESIAN_POINT ( 'NONE',  ( 2.478951750578624682E-14, -8.694992273946207746E-16, 7.100000000000000533 ) ) ;
#18 = AXIS2_PLACEMENT_3D ( 'NONE', #78, #127, #10 ) ;
#19 = CALENDAR_DATE ( 2021, 8, 10 ) ;
#20 = COORDINATED_UNIVERSAL_TIME_OFFSET ( 1, 0, .AHEAD. ) ;
#21 = DIRECTION ( 'NONE',  ( 0.0000000000000000000, 0.0000000000000000000, 1.000000000000000000 ) ) ;
#22 = APPROVAL_PERSON_ORGANIZATION ( #162, #25, #53 ) ;
#23 = DATE_AND_TIME ( #122, #2 ) ;
#24 = PERSON_AND_ORGANIZATION_ROLE ( 'design_owner' ) ;
#25 = APPROVAL ( #210, 'UNSPECIFIED' ) ;
#26 = EDGE_LOOP ( 'NONE', ( #147 ) ) ;
#27 = EDGE_LOOP ( 'NONE', ( #28 ) ) ;
#28 = ORIENTED_EDGE ( 'NONE', *, *, #148, .F. ) ;
#29 = DIRECTION ( 'NONE',  ( 4.275831445896958607E-31, 1.000000000000000000, 1.224646799147353207E-16 ) ) ;
#30 = CYLINDRICAL_SURFACE ( 'NONE', #45, 0.4449999999999982303 ) ;
#31 = DIRECTION ( 'NONE',  ( -3.491481338843133355E-15, 1.224646799147353207E-16, -1.000000000000000000 ) ) ;
#32 = ORGANIZATION ( 'UNSPECIFIED', 'UNSPECIFIED', '' ) ;
#33 = VERTEX_POINT ( 'NONE', #134 ) ;
#34 = VERTEX_POINT ( 'NONE', #102 ) ;
#35 = DATE_AND_TIME ( #19, #54 ) ;
#36 = AXIS2_PLACEMENT_3D ( 'NONE', #196, #21, #56 ) ;
#37 = SHAPE_DEFINITION_REPRESENTATION ( #72, #75 ) ;
#38 = COORDINATED_UNIVERSAL_TIME_OFFSET ( 1, 0, .AHEAD. ) ;
#39 = AXIS2_PLACEMENT_3D ( 'NONE', #170, #157, #49 ) ;
#40 = CALENDAR_DATE ( 2021, 8, 10 ) ;
#41 = EDGE_LOOP ( 'NONE', ( #184 ) ) ;
#42 = CIRCLE ( 'NONE', #73, 0.7499999999999998890 ) ;
#43 = ORIENTED_EDGE ( 'NONE', *, *, #74, .T. ) ;
#44 = ORIENTED_EDGE ( 'NONE', *, *, #132, .F. ) ;
#45 = AXIS2_PLACEMENT_3D ( 'NONE', #101, #187, #81 ) ;
#46 = DIRECTION ( 'NONE',  ( -4.327932459297182080E-31, -1.000000000000000000, -1.218204688185966473E-16 ) ) ;
#47 = CC_DESIGN_PERSON_AND_ORGANIZATION_ASSIGNMENT ( #105, #120, ( #152 ) ) ;
#48 = CYLINDRICAL_SURFACE ( 'NONE', #85, 0.7499999999999985567 ) ;
#49 = DIRECTION ( 'NONE',  ( -4.275831445896958607E-31, -1.000000000000000000, -1.224646799147353207E-16 ) ) ;
#50 = CIRCLE ( 'NONE', #18, 0.5500000000000000444 ) ;
#51 = FACE_OUTER_BOUND ( 'NONE', #198, .T. ) ;
#52 = SECURITY_CLASSIFICATION_LEVEL ( 'unclassified' ) ;
#53 = APPROVAL_ROLE ( '' ) ;
#54 = LOCAL_TIME ( 7, 14, 47.00000000000000000, #192 ) ;
#55 = CC_DESIGN_DATE_AND_TIME_ASSIGNMENT ( #142, #87, ( #65 ) ) ;
#56 = DIRECTION ( 'NONE',  ( 1.000000000000000000, 0.0000000000000000000, 0.0000000000000000000 ) ) ;
#57 = PERSON_AND_ORGANIZATION ( #219, #32 ) ;
#58 = DIRECTION ( 'NONE',  ( -3.491481338843133355E-15, 1.224646799147353207E-16, -1.000000000000000000 ) ) ;
#59 = CC_DESIGN_APPROVAL ( #25, ( #65 ) ) ;
#60 = ORIENTED_EDGE ( 'NONE', *, *, #128, .T. ) ;
#61 = ORIENTED_EDGE ( 'NONE', *, *, #74, .F. ) ;
#62 = CONICAL_SURFACE ( 'NONE', #103, 0.5500000000000000444, 0.7853981633974510546 ) ;
#63 = DIRECTION ( 'NONE',  ( 0.0000000000000000000, 1.000000000000000000, 0.0000000000000000000 ) ) ;
#64 = DIRECTION ( 'NONE',  ( -3.491481338843133355E-15, 1.224646799147353207E-16, -1.000000000000000000 ) ) ;
#65 = PRODUCT_DEFINITION ( 'UNKNOWN', '', #94, #8 ) ;
#66 = DIRECTION ( 'NONE',  ( 4.327932459297182080E-31, 1.000000000000000000, 1.218204688185966473E-16 ) ) ;
#67 = EDGE_CURVE ( 'NONE', #13, #13, #42, .T. ) ;
#68 = PERSON_AND_ORGANIZATION_ROLE ( 'design_supplier' ) ;
#69 = COORDINATED_UNIVERSAL_TIME_OFFSET ( 1, 0, .AHEAD. ) ;
#70 = PRODUCT_RELATED_PRODUCT_CATEGORY ( 'detail', '', ( #97 ) ) ;
#71 = CIRCLE ( 'NONE', #80, 0.7499999999999973355 ) ;
#72 = PRODUCT_DEFINITION_SHAPE ( 'NONE', 'NONE',  #65 ) ;
#73 = AXIS2_PLACEMENT_3D ( 'NONE', #12, #58, #164 ) ;
#74 = EDGE_CURVE ( 'NONE', #16, #16, #50, .T. ) ;
#75 = ADVANCED_BREP_SHAPE_REPRESENTATION ( '55341', ( #183, #109, #36 ), #130 ) ;
#76 = FACE_BOUND ( 'NONE', #131, .T. ) ;
#77 = PLANE ( 'NONE',  #180 ) ;
#78 = CARTESIAN_POINT ( 'NONE',  ( 1.047444401652940007E-13, -3.673940397442059178E-15, 30.00000000000000000 ) ) ;
#79 = CARTESIAN_POINT ( 'NONE',  ( 1.047444401652940007E-13, 0.5499999999999963807, 30.00000000000000000 ) ) ;
#80 = AXIS2_PLACEMENT_3D ( 'NONE', #137, #31, #63 ) ;
#81 = DIRECTION ( 'NONE',  ( 4.275831445896958607E-31, 1.000000000000000000, 1.224646799147353207E-16 ) ) ;
#82 = FACE_OUTER_BOUND ( 'NONE', #93, .T. ) ;
#83 = DIRECTION ( 'NONE',  ( -3.491481338843133355E-15, 1.224646799147353207E-16, -1.000000000000000000 ) ) ;
#84 = PLANE ( 'NONE',  #39 ) ;
#85 = AXIS2_PLACEMENT_3D ( 'NONE', #191, #99, #154 ) ;
#86 = PERSON_AND_ORGANIZATION ( #219, #32 ) ;
#87 = DATE_TIME_ROLE ( 'creation_date' ) ;
#88 = APPROVAL_ROLE ( '' ) ;
#89 = CONICAL_SURFACE ( 'NONE', #14, 0.7499999999999973355, 0.5235987755982928205 ) ;
#90 = APPROVAL_STATUS ( 'not_yet_approved' ) ;
#91 = PERSON_AND_ORGANIZATION_ROLE ( 'creator' ) ;
#92 = UNCERTAINTY_MEASURE_WITH_UNIT (LENGTH_MEASURE( 1.000000000000000082E-05 ), #118, 'distance_accuracy_value', 'NONE');
#93 = EDGE_LOOP ( 'NONE', ( #61 ) ) ;
#94 = PRODUCT_DEFINITION_FORMATION_WITH_SPECIFIED_SOURCE ( 'ANY', '', #97, .NOT_KNOWN. ) ;
#95 = ADVANCED_FACE ( 'NONE', ( #76, #144 ), #89, .T. ) ;
#96 = DIRECTION ( 'NONE',  ( 0.0000000000000000000, -1.000000000000000000, 0.0000000000000000000 ) ) ;
#97 = PRODUCT ( '55341', '55341', '', ( #124 ) ) ;
#98 = CC_DESIGN_DATE_AND_TIME_ASSIGNMENT ( #35, #6, ( #152 ) ) ;
#99 = DIRECTION ( 'NONE',  ( -3.491481338843133355E-15, 1.224646799147353207E-16, -1.000000000000000000 ) ) ;
#100 = CARTESIAN_POINT ( 'NONE',  ( 1.040461438975253740E-13, 0.7499999999999962252, 29.80000000000000071 ) ) ;
#101 = CARTESIAN_POINT ( 'NONE',  ( 0.0000000000000000000, 0.0000000000000000000, 0.0000000000000000000 ) ) ;
#102 = CARTESIAN_POINT ( 'NONE',  ( 9.335626691683102984E-16, 0.4449999999999976197, 0.2673829754672659154 ) ) ;
#103 = AXIS2_PLACEMENT_3D ( 'NONE', #1, #3, #209 ) ;
#104 =( NAMED_UNIT ( * ) SI_UNIT ( $, .STERADIAN. ) SOLID_ANGLE_UNIT ( ) );
#105 = PERSON_AND_ORGANIZATION ( #219, #32 ) ;
#106 = PERSON_AND_ORGANIZATION ( #219, #32 ) ;
#107 = AXIS2_PLACEMENT_3D ( 'NONE', #136, #15, #66 ) ;
#108 = PERSON_AND_ORGANIZATION ( #219, #32 ) ;
#109 = MANIFOLD_SOLID_BREP ( 'Corps-Déplacer/Copier1[2]', #185 ) ;
#110 = EDGE_LOOP ( 'NONE', ( #114 ) ) ;
#111 = CC_DESIGN_PERSON_AND_ORGANIZATION_ASSIGNMENT ( #106, #24, ( #97 ) ) ;
#112 = ORIENTED_EDGE ( 'NONE', *, *, #128, .F. ) ;
#113 = LOCAL_TIME ( 7, 14, 47.00000000000000000, #20 ) ;
#114 = ORIENTED_EDGE ( 'NONE', *, *, #67, .T. ) ;
#115 = AXIS2_PLACEMENT_3D ( 'NONE', #117, #150, #135 ) ;
#116 = FACE_OUTER_BOUND ( 'NONE', #218, .T. ) ;
#117 = CARTESIAN_POINT ( 'NONE',  ( 2.478951750578624682E-14, -8.694992273946207746E-16, 7.100000000000000533 ) ) ;
#118 =( LENGTH_UNIT ( ) NAMED_UNIT ( * ) SI_UNIT ( .MILLI., .METRE. ) );
#119 = CARTESIAN_POINT ( 'NONE',  ( 2.663398154291551184E-14, 0.7499999999999963363, 7.628275496308512871 ) ) ;
#120 = PERSON_AND_ORGANIZATION_ROLE ( 'classification_officer' ) ;
#121 = APPROVAL_ROLE ( '' ) ;
#122 = CALENDAR_DATE ( 2021, 8, 10 ) ;
#123 = APPLICATION_CONTEXT ( 'configuration controlled 3d designs of mechanical parts and assemblies' ) ;
#124 = MECHANICAL_CONTEXT ( 'NONE', #123, 'mechanical' ) ;
#125 = APPLICATION_PROTOCOL_DEFINITION ( 'international standard', 'config_control_design', 1994, #200 ) ;
#126 = ADVANCED_FACE ( 'NONE', ( #165 ), #77, .F. ) ;
#127 = DIRECTION ( 'NONE',  ( -3.491481338843133355E-15, 1.224646799147353207E-16, -1.000000000000000000 ) ) ;
#128 = EDGE_CURVE ( 'NONE', #220, #220, #71, .T. ) ;
#129 = CARTESIAN_POINT ( 'NONE',  ( 2.478951750578624682E-14, -1.028842120966157508E-31, 7.100000000000000533 ) ) ;
#130 =( GEOMETRIC_REPRESENTATION_CONTEXT ( 3 ) GLOBAL_UNCERTAINTY_ASSIGNED_CONTEXT ( ( #92 ) ) GLOBAL_UNIT_ASSIGNED_CONTEXT ( ( #118, #190, #104 ) ) REPRESENTATION_CONTEXT ( 'NONE', 'WORKASPACE' ) );
#131 = EDGE_LOOP ( 'NONE', ( #44 ) ) ;
#132 = EDGE_CURVE ( 'NONE', #33, #33, #201, .T. ) ;
#133 = DIRECTION ( 'NONE',  ( 3.491481338843133355E-15, -1.224646799147353207E-16, 1.000000000000000000 ) ) ;
#134 = CARTESIAN_POINT ( 'NONE',  ( 2.478951750578624682E-14, 0.4449999999999978972, 7.100000000000000533 ) ) ;
#135 = DIRECTION ( 'NONE',  ( 0.0000000000000000000, 1.000000000000000000, 0.0000000000000000000 ) ) ;
#136 = CARTESIAN_POINT ( 'NONE',  ( 9.335626691683101012E-16, -3.274497050524824154E-17, 0.2673829754672658598 ) ) ;
#137 = CARTESIAN_POINT ( 'NONE',  ( 2.663398154291551184E-14, -9.341943169568407810E-16, 7.628275496308512871 ) ) ;
#138 = APPROVAL_DATE_TIME ( #23, #25 ) ;
#139 = DATE_AND_TIME ( #40, #167 ) ;
#140 = CC_DESIGN_APPROVAL ( #156, ( #152 ) ) ;
#141 = ADVANCED_FACE ( 'NONE', ( #204 ), #143, .T. ) ;
#142 = DATE_AND_TIME ( #213, #205 ) ;
#143 = CONICAL_SURFACE ( 'NONE', #160, 0.4449999999999976752, 1.029744258676649649 ) ;
#144 = FACE_OUTER_BOUND ( 'NONE', #11, .T. ) ;
#145 = CLOSED_SHELL ( 'NONE', ( #126, #95, #178, #146, #175 ) ) ;
#146 = ADVANCED_FACE ( 'NONE', ( #172, #207 ), #62, .T. ) ;
#147 = ORIENTED_EDGE ( 'NONE', *, *, #67, .F. ) ;
#148 = EDGE_CURVE ( 'NONE', #206, #206, #217, .T. ) ;
#149 = EDGE_CURVE ( 'NONE', #34, #34, #193, .T. ) ;
#150 = DIRECTION ( 'NONE',  ( -3.491481338843133355E-15, 1.224646799147353207E-16, -1.000000000000000000 ) ) ;
#151 = CC_DESIGN_PERSON_AND_ORGANIZATION_ASSIGNMENT ( #159, #68, ( #94 ) ) ;
#152 = SECURITY_CLASSIFICATION ( '', '', #52 ) ;
#153 = FACE_OUTER_BOUND ( 'NONE', #110, .T. ) ;
#154 = DIRECTION ( 'NONE',  ( 4.275831445896959482E-31, 1.000000000000000000, 1.224646799147353454E-16 ) ) ;
#155 = FACE_OUTER_BOUND ( 'NONE', #41, .T. ) ;
#156 = APPROVAL ( #195, 'UNSPECIFIED' ) ;
#157 = DIRECTION ( 'NONE',  ( 3.491481338843133355E-15, -1.224646799147353207E-16, 1.000000000000000000 ) ) ;
#158 = PERSON_AND_ORGANIZATION ( #219, #32 ) ;
#159 = PERSON_AND_ORGANIZATION ( #219, #32 ) ;
#160 = AXIS2_PLACEMENT_3D ( 'NONE', #188, #133, #46 ) ;
#161 = PERSON_AND_ORGANIZATION_ROLE ( 'creator' ) ;
#162 = PERSON_AND_ORGANIZATION ( #219, #32 ) ;
#163 = APPROVAL_PERSON_ORGANIZATION ( #158, #156, #121 ) ;
#164 = DIRECTION ( 'NONE',  ( 0.0000000000000000000, 1.000000000000000000, 0.0000000000000000000 ) ) ;
#165 = FACE_OUTER_BOUND ( 'NONE', #203, .T. ) ;
#166 = EDGE_LOOP ( 'NONE', ( #43 ) ) ;
#167 = LOCAL_TIME ( 7, 14, 47.00000000000000000, #197 ) ;
#168 = ORIENTED_EDGE ( 'NONE', *, *, #132, .T. ) ;
#169 = CC_DESIGN_PERSON_AND_ORGANIZATION_ASSIGNMENT ( #108, #91, ( #94 ) ) ;
#170 = CARTESIAN_POINT ( 'NONE',  ( 2.478951750578624682E-14, -1.028842120966157508E-31, 7.100000000000000533 ) ) ;
#171 = CARTESIAN_POINT ( 'NONE',  ( 2.478951750578624682E-14, 0.4449999999999978972, 7.100000000000000533 ) ) ;
#172 = FACE_OUTER_BOUND ( 'NONE', #26, .T. ) ;
#173 = CC_DESIGN_APPROVAL ( #7, ( #94 ) ) ;
#174 = ADVANCED_FACE ( 'NONE', ( #155, #116 ), #30, .T. ) ;
#175 = ADVANCED_FACE ( 'NONE', ( #82 ), #221, .F. ) ;
#176 = APPROVAL_DATE_TIME ( #139, #7 ) ;
#177 = APPROVAL_PERSON_ORGANIZATION ( #57, #7, #88 ) ;
#178 = ADVANCED_FACE ( 'NONE', ( #51, #153 ), #48, .T. ) ;
#179 = ORIENTED_EDGE ( 'NONE', *, *, #148, .T. ) ;
#180 = AXIS2_PLACEMENT_3D ( 'NONE', #129, #202, #182 ) ;
#181 = ORIENTED_EDGE ( 'NONE', *, *, #149, .T. ) ;
#182 = DIRECTION ( 'NONE',  ( -4.275831445896958607E-31, -1.000000000000000000, -1.224646799147353207E-16 ) ) ;
#183 = MANIFOLD_SOLID_BREP ( 'Corps-Déplacer/Copier1[1]', #145 ) ;
#184 = ORIENTED_EDGE ( 'NONE', *, *, #149, .F. ) ;
#185 = CLOSED_SHELL ( 'NONE', ( #141, #174, #214 ) ) ;
#186 = CARTESIAN_POINT ( 'NONE',  ( 1.047444401652940007E-13, 4.124339402320052999E-33, 30.00000000000000000 ) ) ;
#187 = DIRECTION ( 'NONE',  ( -3.491481338843133355E-15, 1.224646799147353207E-16, -1.000000000000000000 ) ) ;
#188 = CARTESIAN_POINT ( 'NONE',  ( 9.335626691683101012E-16, -3.274497050524824154E-17, 0.2673829754672658598 ) ) ;
#189 = CC_DESIGN_SECURITY_CLASSIFICATION ( #152, ( #94 ) ) ;
#190 =( NAMED_UNIT ( * ) PLANE_ANGLE_UNIT ( ) SI_UNIT ( $, .RADIAN. ) );
#191 = CARTESIAN_POINT ( 'NONE',  ( 0.0000000000000000000, 0.0000000000000000000, 0.0000000000000000000 ) ) ;
#192 = COORDINATED_UNIVERSAL_TIME_OFFSET ( 1, 0, .AHEAD. ) ;
#193 = CIRCLE ( 'NONE', #107, 0.4449999999999976752 ) ;
#194 = APPROVAL_DATE_TIME ( #211, #156 ) ;
#195 = APPROVAL_STATUS ( 'not_yet_approved' ) ;
#196 = CARTESIAN_POINT ( 'NONE',  ( 0.0000000000000000000, 0.0000000000000000000, 0.0000000000000000000 ) ) ;
#197 = COORDINATED_UNIVERSAL_TIME_OFFSET ( 1, 0, .AHEAD. ) ;
#198 = EDGE_LOOP ( 'NONE', ( #112 ) ) ;
#199 = DIRECTION ( 'NONE',  ( 3.491481338843133355E-15, -1.224646799147353207E-16, 1.000000000000000000 ) ) ;
#200 = APPLICATION_CONTEXT ( 'configuration controlled 3d designs of mechanical parts and assemblies' ) ;
#201 = CIRCLE ( 'NONE', #115, 0.4449999999999987854 ) ;
#202 = DIRECTION ( 'NONE',  ( 3.491481338843133355E-15, -1.224646799147353207E-16, 1.000000000000000000 ) ) ;
#203 = EDGE_LOOP ( 'NONE', ( #168 ) ) ;
#204 = FACE_OUTER_BOUND ( 'NONE', #216, .T. ) ;
#205 = LOCAL_TIME ( 7, 14, 47.00000000000000000, #38 ) ;
#206 = VERTEX_POINT ( 'NONE', #171 ) ;
#207 = FACE_BOUND ( 'NONE', #166, .T. ) ;
#208 = FACE_OUTER_BOUND ( 'NONE', #27, .T. ) ;
#209 = DIRECTION ( 'NONE',  ( 0.0000000000000000000, 1.000000000000000000, 0.0000000000000000000 ) ) ;
#210 = APPROVAL_STATUS ( 'not_yet_approved' ) ;
#211 = DATE_AND_TIME ( #4, #113 ) ;
#212 = APPLICATION_PROTOCOL_DEFINITION ( 'international standard', 'config_control_design', 1994, #123 ) ;
#213 = CALENDAR_DATE ( 2021, 8, 10 ) ;
#214 = ADVANCED_FACE ( 'NONE', ( #208 ), #84, .T. ) ;
#215 = CARTESIAN_POINT ( 'NONE',  ( 2.663398154291551184E-14, -9.341943169568407810E-16, 7.628275496308512871 ) ) ;
#216 = EDGE_LOOP ( 'NONE', ( #181 ) ) ;
#217 = CIRCLE ( 'NONE', #9, 0.4449999999999987854 ) ;
#218 = EDGE_LOOP ( 'NONE', ( #179 ) ) ;
#219 = PERSON ( 'UNSPECIFIED', 'UNSPECIFIED', 'UNSPECIFIED', ('UNSPECIFIED'), ('UNSPECIFIED'), ('UNSPECIFIED') ) ;
#220 = VERTEX_POINT ( 'NONE', #119 ) ;
#221 = PLANE ( 'NONE',  #5 ) ;
#222 = CC_DESIGN_PERSON_AND_ORGANIZATION_ASSIGNMENT ( #86, #161, ( #65 ) ) ;
#223 = DIRECTION ( 'NONE',  ( 0.0000000000000000000, 1.000000000000000000, 0.0000000000000000000 ) ) ;
ENDSEC;
END-ISO-10303-21;
