ISO-10303-21;
HEADER;
FILE_DESCRIPTION (( 'STEP AP203' ),
    '1' );
FILE_NAME ('55340.step',
    '2021-10-08T05:14:46',
    ( '' ),
    ( '' ),
    'SwSTEP 2.0',
    'SolidWorks 2019',
    '' );
FILE_SCHEMA (( 'CONFIG_CONTROL_DESIGN' ));
ENDSEC;

DATA;
#1 = ORIENTED_EDGE ( 'NONE', *, *, #104, .F. ) ;
#2 = FACE_OUTER_BOUND ( 'NONE', #8, .T. ) ;
#3 = DIRECTION ( 'NONE',  ( 0.0000000000000000000, 1.000000000000000000, 0.0000000000000000000 ) ) ;
#4 = APPROVAL_PERSON_ORGANIZATION ( #22, #88, #11 ) ;
#5 = DIRECTION ( 'NONE',  ( -3.491481338843133355E-15, 1.224646799147353207E-16, -1.000000000000000000 ) ) ;
#6 = CARTESIAN_POINT ( 'NONE',  ( 1.047444401652940007E-13, 4.124339402320052999E-33, 30.00000000000000000 ) ) ;
#7 = APPROVAL ( #99, 'UNSPECIFIED' ) ;
#8 = EDGE_LOOP ( 'NONE', ( #175 ) ) ;
#9 = CIRCLE ( 'NONE', #69, 0.7499999999999998890 ) ;
#10 = CALENDAR_DATE ( 2021, 8, 10 ) ;
#11 = APPROVAL_ROLE ( '' ) ;
#12 = EDGE_LOOP ( 'NONE', ( #158 ) ) ;
#13 = AXIS2_PLACEMENT_3D ( 'NONE', #91, #161, #36 ) ;
#14 = FACE_OUTER_BOUND ( 'NONE', #45, .T. ) ;
#15 = ADVANCED_FACE ( 'NONE', ( #2, #143 ), #154, .T. ) ;
#16 = FACE_OUTER_BOUND ( 'NONE', #105, .T. ) ;
#17 = FACE_OUTER_BOUND ( 'NONE', #68, .T. ) ;
#18 = LOCAL_TIME ( 7, 14, 46.00000000000000000, #134 ) ;
#19 = ADVANCED_FACE ( 'NONE', ( #196 ), #197, .F. ) ;
#20 = EDGE_LOOP ( 'NONE', ( #89 ) ) ;
#21 = CARTESIAN_POINT ( 'NONE',  ( 1.047444401652940007E-13, -3.673940397442059178E-15, 30.00000000000000000 ) ) ;
#22 = PERSON_AND_ORGANIZATION ( #157, #73 ) ;
#23 = DATE_AND_TIME ( #37, #93 ) ;
#24 = DIRECTION ( 'NONE',  ( 0.0000000000000000000, 1.000000000000000000, 0.0000000000000000000 ) ) ;
#25 = COORDINATED_UNIVERSAL_TIME_OFFSET ( 1, 0, .AHEAD. ) ;
#26 = EDGE_LOOP ( 'NONE', ( #191 ) ) ;
#27 = APPROVAL_ROLE ( '' ) ;
#28 = EDGE_LOOP ( 'NONE', ( #192 ) ) ;
#29 = ADVANCED_FACE ( 'NONE', ( #166, #107 ), #95, .T. ) ;
#30 = DIRECTION ( 'NONE',  ( 4.275831445896958607E-31, 1.000000000000000000, 1.224646799147353207E-16 ) ) ;
#31 = CARTESIAN_POINT ( 'NONE',  ( 1.040461438975253740E-13, -3.649447461459112464E-15, 29.80000000000000071 ) ) ;
#32 = DIRECTION ( 'NONE',  ( 0.0000000000000000000, 1.000000000000000000, 0.0000000000000000000 ) ) ;
#33 = AXIS2_PLACEMENT_3D ( 'NONE', #21, #209, #129 ) ;
#34 = DIRECTION ( 'NONE',  ( -4.377113509971013824E-31, -1.000000000000000000, -1.232047923278988855E-16 ) ) ;
#35 = APPLICATION_CONTEXT ( 'configuration controlled 3d designs of mechanical parts and assemblies' ) ;
#36 = DIRECTION ( 'NONE',  ( 0.0000000000000000000, 1.000000000000000000, 0.0000000000000000000 ) ) ;
#37 = CALENDAR_DATE ( 2021, 8, 10 ) ;
#38 =( LENGTH_UNIT ( ) NAMED_UNIT ( * ) SI_UNIT ( .MILLI., .METRE. ) );
#39 = AXIS2_PLACEMENT_3D ( 'NONE', #74, #210, #75 ) ;
#40 = MECHANICAL_CONTEXT ( 'NONE', #58, 'mechanical' ) ;
#41 = CC_DESIGN_PERSON_AND_ORGANIZATION_ASSIGNMENT ( #150, #216, ( #127 ) ) ;
#42 = DIRECTION ( 'NONE',  ( 0.0000000000000000000, 0.0000000000000000000, 1.000000000000000000 ) ) ;
#43 = PERSON_AND_ORGANIZATION_ROLE ( 'design_supplier' ) ;
#44 = CC_DESIGN_APPROVAL ( #152, ( #139 ) ) ;
#45 = EDGE_LOOP ( 'NONE', ( #87 ) ) ;
#46 = SECURITY_CLASSIFICATION_LEVEL ( 'unclassified' ) ;
#47 = ORIENTED_EDGE ( 'NONE', *, *, #104, .T. ) ;
#48 = APPROVAL_PERSON_ORGANIZATION ( #65, #152, #27 ) ;
#49 = EDGE_CURVE ( 'NONE', #116, #116, #96, .T. ) ;
#50 = CARTESIAN_POINT ( 'NONE',  ( 9.230732009754076208E-16, -3.237704948833533497E-17, 0.2643786723721280318 ) ) ;
#51 = DIRECTION ( 'NONE',  ( 3.491481338843133355E-15, -1.224646799147353207E-16, 1.000000000000000000 ) ) ;
#52 = LOCAL_TIME ( 7, 14, 46.00000000000000000, #119 ) ;
#53 = PRODUCT_DEFINITION_SHAPE ( 'NONE', 'NONE',  #127 ) ;
#54 = PLANE ( 'NONE',  #106 ) ;
#55 = DIRECTION ( 'NONE',  ( 3.491481338843133355E-15, -1.224646799147353207E-16, 1.000000000000000000 ) ) ;
#56 = AXIS2_PLACEMENT_3D ( 'NONE', #59, #42, #201 ) ;
#57 = DIRECTION ( 'NONE',  ( 4.275831445896959482E-31, 1.000000000000000000, 1.224646799147353454E-16 ) ) ;
#58 = APPLICATION_CONTEXT ( 'configuration controlled 3d designs of mechanical parts and assemblies' ) ;
#59 = CARTESIAN_POINT ( 'NONE',  ( 0.0000000000000000000, 0.0000000000000000000, 0.0000000000000000000 ) ) ;
#60 = ADVANCED_FACE ( 'NONE', ( #113, #160 ), #182, .T. ) ;
#61 = VERTEX_POINT ( 'NONE', #79 ) ;
#62 = CIRCLE ( 'NONE', #208, 0.7499999999999973355 ) ;
#63 = EDGE_CURVE ( 'NONE', #147, #147, #188, .T. ) ;
#64 = APPROVAL_ROLE ( '' ) ;
#65 = PERSON_AND_ORGANIZATION ( #157, #73 ) ;
#66 = CC_DESIGN_APPROVAL ( #7, ( #112 ) ) ;
#67 = COORDINATED_UNIVERSAL_TIME_OFFSET ( 1, 0, .AHEAD. ) ;
#68 = EDGE_LOOP ( 'NONE', ( #47 ) ) ;
#69 = AXIS2_PLACEMENT_3D ( 'NONE', #31, #5, #3 ) ;
#70 =( GEOMETRIC_REPRESENTATION_CONTEXT ( 3 ) GLOBAL_UNCERTAINTY_ASSIGNED_CONTEXT ( ( #203 ) ) GLOBAL_UNIT_ASSIGNED_CONTEXT ( ( #38, #115, #185 ) ) REPRESENTATION_CONTEXT ( 'NONE', 'WORKASPACE' ) );
#71 = DIRECTION ( 'NONE',  ( -3.491481338843133355E-15, 1.224646799147353207E-16, -1.000000000000000000 ) ) ;
#72 = AXIS2_PLACEMENT_3D ( 'NONE', #126, #97, #24 ) ;
#73 = ORGANIZATION ( 'UNSPECIFIED', 'UNSPECIFIED', '' ) ;
#74 = CARTESIAN_POINT ( 'NONE',  ( 2.666421865827829004E-14, -9.352548921955656280E-16, 7.636935750346356855 ) ) ;
#75 = DIRECTION ( 'NONE',  ( 0.0000000000000000000, -1.000000000000000000, 0.0000000000000000000 ) ) ;
#76 = PLANE ( 'NONE',  #190 ) ;
#77 = MANIFOLD_SOLID_BREP ( 'Corps-Déplacer/Copier1[2]', #110 ) ;
#78 = CIRCLE ( 'NONE', #72, 0.4399999999999981148 ) ;
#79 = CARTESIAN_POINT ( 'NONE',  ( 1.040461438975253740E-13, 0.7499999999999962252, 29.80000000000000071 ) ) ;
#80 = CARTESIAN_POINT ( 'NONE',  ( 2.478951750578624682E-14, 0.4399999999999972267, 7.100000000000000533 ) ) ;
#81 = DESIGN_CONTEXT ( 'detailed design', #35, 'design' ) ;
#82 = DATE_AND_TIME ( #10, #149 ) ;
#83 = PERSON_AND_ORGANIZATION ( #157, #73 ) ;
#84 = APPROVAL_STATUS ( 'not_yet_approved' ) ;
#85 = CIRCLE ( 'NONE', #204, 0.4399999999999981148 ) ;
#86 = EDGE_CURVE ( 'NONE', #168, #168, #85, .T. ) ;
#87 = ORIENTED_EDGE ( 'NONE', *, *, #49, .F. ) ;
#88 = APPROVAL ( #117, 'UNSPECIFIED' ) ;
#89 = ORIENTED_EDGE ( 'NONE', *, *, #63, .F. ) ;
#90 = DIRECTION ( 'NONE',  ( -3.491481338843133355E-15, 1.224646799147353207E-16, -1.000000000000000000 ) ) ;
#91 = CARTESIAN_POINT ( 'NONE',  ( 1.047444401652940007E-13, -3.673940397442059178E-15, 30.00000000000000000 ) ) ;
#92 = FACE_OUTER_BOUND ( 'NONE', #155, .T. ) ;
#93 = LOCAL_TIME ( 7, 14, 46.00000000000000000, #25 ) ;
#94 = DIRECTION ( 'NONE',  ( -4.275831445896958607E-31, -1.000000000000000000, -1.224646799147353207E-16 ) ) ;
#95 = CYLINDRICAL_SURFACE ( 'NONE', #133, 0.4399999999999978928 ) ;
#96 = CIRCLE ( 'NONE', #13, 0.5500000000000000444 ) ;
#97 = DIRECTION ( 'NONE',  ( -3.491481338843133355E-15, 1.224646799147353207E-16, -1.000000000000000000 ) ) ;
#98 = CARTESIAN_POINT ( 'NONE',  ( 9.230732009754078181E-16, 0.4399999999999976152, 0.2643786723721280874 ) ) ;
#99 = APPROVAL_STATUS ( 'not_yet_approved' ) ;
#100 = DATE_AND_TIME ( #118, #52 ) ;
#101 = SHAPE_DEFINITION_REPRESENTATION ( #53, #217 ) ;
#102 = CONICAL_SURFACE ( 'NONE', #174, 0.4399999999999976708, 1.029744258676649649 ) ;
#103 = EDGE_LOOP ( 'NONE', ( #179 ) ) ;
#104 = EDGE_CURVE ( 'NONE', #214, #214, #62, .T. ) ;
#105 = EDGE_LOOP ( 'NONE', ( #108 ) ) ;
#106 = AXIS2_PLACEMENT_3D ( 'NONE', #6, #90, #125 ) ;
#107 = FACE_OUTER_BOUND ( 'NONE', #28, .T. ) ;
#108 = ORIENTED_EDGE ( 'NONE', *, *, #86, .F. ) ;
#109 = FACE_BOUND ( 'NONE', #12, .T. ) ;
#110 = CLOSED_SHELL ( 'NONE', ( #199, #29, #163 ) ) ;
#111 = CARTESIAN_POINT ( 'NONE',  ( 2.478951750578624682E-14, -1.029217060911823003E-31, 7.100000000000000533 ) ) ;
#112 = PRODUCT_DEFINITION_FORMATION_WITH_SPECIFIED_SOURCE ( 'ANY', '', #167, .NOT_KNOWN. ) ;
#113 = FACE_OUTER_BOUND ( 'NONE', #223, .T. ) ;
#114 = PERSON_AND_ORGANIZATION_ROLE ( 'design_owner' ) ;
#115 =( NAMED_UNIT ( * ) PLANE_ANGLE_UNIT ( ) SI_UNIT ( $, .RADIAN. ) );
#116 = VERTEX_POINT ( 'NONE', #148 ) ;
#117 = APPROVAL_STATUS ( 'not_yet_approved' ) ;
#118 = CALENDAR_DATE ( 2021, 8, 10 ) ;
#119 = COORDINATED_UNIVERSAL_TIME_OFFSET ( 1, 0, .AHEAD. ) ;
#120 = EDGE_LOOP ( 'NONE', ( #173 ) ) ;
#121 = ADVANCED_FACE ( 'NONE', ( #14 ), #54, .F. ) ;
#122 = DIRECTION ( 'NONE',  ( -3.491481338843133355E-15, 1.224646799147353207E-16, -1.000000000000000000 ) ) ;
#123 = PRODUCT_RELATED_PRODUCT_CATEGORY ( 'detail', '', ( #167 ) ) ;
#124 = CARTESIAN_POINT ( 'NONE',  ( 0.0000000000000000000, 0.0000000000000000000, 0.0000000000000000000 ) ) ;
#125 = DIRECTION ( 'NONE',  ( 4.275831445896958607E-31, 1.000000000000000000, 1.224646799147353207E-16 ) ) ;
#126 = CARTESIAN_POINT ( 'NONE',  ( 2.478951750578624682E-14, -8.694992273946207746E-16, 7.100000000000000533 ) ) ;
#127 = PRODUCT_DEFINITION ( 'UNKNOWN', '', #112, #81 ) ;
#128 = AXIS2_PLACEMENT_3D ( 'NONE', #124, #207, #57 ) ;
#129 = DIRECTION ( 'NONE',  ( 0.0000000000000000000, 1.000000000000000000, 0.0000000000000000000 ) ) ;
#130 = LOCAL_TIME ( 7, 14, 46.00000000000000000, #67 ) ;
#131 = CALENDAR_DATE ( 2021, 8, 10 ) ;
#132 = CARTESIAN_POINT ( 'NONE',  ( 2.666421865827829004E-14, 0.7499999999999963363, 7.636935750346356855 ) ) ;
#133 = AXIS2_PLACEMENT_3D ( 'NONE', #180, #122, #30 ) ;
#134 = COORDINATED_UNIVERSAL_TIME_OFFSET ( 1, 0, .AHEAD. ) ;
#135 = APPROVAL_DATE_TIME ( #82, #7 ) ;
#136 = CC_DESIGN_DATE_AND_TIME_ASSIGNMENT ( #146, #187, ( #127 ) ) ;
#137 = APPROVAL_DATE_TIME ( #100, #152 ) ;
#138 = CLOSED_SHELL ( 'NONE', ( #19, #184, #60, #15, #121 ) ) ;
#139 = SECURITY_CLASSIFICATION ( '', '', #46 ) ;
#140 = CC_DESIGN_PERSON_AND_ORGANIZATION_ASSIGNMENT ( #183, #43, ( #112 ) ) ;
#141 = DIRECTION ( 'NONE',  ( -3.491481338843133355E-15, 1.224646799147353207E-16, -1.000000000000000000 ) ) ;
#142 = CONICAL_SURFACE ( 'NONE', #39, 0.7499999999999973355, 0.5235987755982938197 ) ;
#143 = FACE_BOUND ( 'NONE', #103, .T. ) ;
#144 = CARTESIAN_POINT ( 'NONE',  ( 9.230732009754076208E-16, -3.237704948833533497E-17, 0.2643786723721280318 ) ) ;
#145 = DIRECTION ( 'NONE',  ( 3.491481338843133355E-15, -1.224646799147353207E-16, 1.000000000000000000 ) ) ;
#146 = DATE_AND_TIME ( #131, #18 ) ;
#147 = VERTEX_POINT ( 'NONE', #98 ) ;
#148 = CARTESIAN_POINT ( 'NONE',  ( 1.047444401652940007E-13, 0.5499999999999963807, 30.00000000000000000 ) ) ;
#149 = LOCAL_TIME ( 7, 14, 46.00000000000000000, #170 ) ;
#150 = PERSON_AND_ORGANIZATION ( #157, #73 ) ;
#151 = PERSON_AND_ORGANIZATION ( #157, #73 ) ;
#152 = APPROVAL ( #84, 'UNSPECIFIED' ) ;
#153 = PERSON_AND_ORGANIZATION_ROLE ( 'classification_officer' ) ;
#154 = CONICAL_SURFACE ( 'NONE', #33, 0.5500000000000000444, 0.7853981633974510546 ) ;
#155 = EDGE_LOOP ( 'NONE', ( #211 ) ) ;
#156 = CALENDAR_DATE ( 2021, 8, 10 ) ;
#157 = PERSON ( 'UNSPECIFIED', 'UNSPECIFIED', 'UNSPECIFIED', ('UNSPECIFIED'), ('UNSPECIFIED'), ('UNSPECIFIED') ) ;
#158 = ORIENTED_EDGE ( 'NONE', *, *, #222, .F. ) ;
#159 = CC_DESIGN_PERSON_AND_ORGANIZATION_ASSIGNMENT ( #202, #213, ( #112 ) ) ;
#160 = FACE_OUTER_BOUND ( 'NONE', #26, .T. ) ;
#161 = DIRECTION ( 'NONE',  ( -3.491481338843133355E-15, 1.224646799147353207E-16, -1.000000000000000000 ) ) ;
#162 = AXIS2_PLACEMENT_3D ( 'NONE', #50, #71, #177 ) ;
#163 = ADVANCED_FACE ( 'NONE', ( #16 ), #76, .T. ) ;
#164 = CARTESIAN_POINT ( 'NONE',  ( 2.666421865827829004E-14, -9.352548921955656280E-16, 7.636935750346356855 ) ) ;
#165 = DIRECTION ( 'NONE',  ( 0.0000000000000000000, 1.000000000000000000, 0.0000000000000000000 ) ) ;
#166 = FACE_OUTER_BOUND ( 'NONE', #20, .T. ) ;
#167 = PRODUCT ( '55340', '55340', '', ( #40 ) ) ;
#168 = VERTEX_POINT ( 'NONE', #80 ) ;
#169 = AXIS2_PLACEMENT_3D ( 'NONE', #194, #145, #94 ) ;
#170 = COORDINATED_UNIVERSAL_TIME_OFFSET ( 1, 0, .AHEAD. ) ;
#171 = EDGE_CURVE ( 'NONE', #61, #61, #9, .T. ) ;
#172 = APPLICATION_PROTOCOL_DEFINITION ( 'international standard', 'config_control_design', 1994, #35 ) ;
#173 = ORIENTED_EDGE ( 'NONE', *, *, #222, .T. ) ;
#174 = AXIS2_PLACEMENT_3D ( 'NONE', #144, #55, #34 ) ;
#175 = ORIENTED_EDGE ( 'NONE', *, *, #171, .F. ) ;
#176 = CC_DESIGN_PERSON_AND_ORGANIZATION_ASSIGNMENT ( #189, #114, ( #167 ) ) ;
#177 = DIRECTION ( 'NONE',  ( 4.377113509971013824E-31, 1.000000000000000000, 1.232047923278988855E-16 ) ) ;
#178 = DIRECTION ( 'NONE',  ( -3.491481338843133355E-15, 1.224646799147353207E-16, -1.000000000000000000 ) ) ;
#179 = ORIENTED_EDGE ( 'NONE', *, *, #49, .T. ) ;
#180 = CARTESIAN_POINT ( 'NONE',  ( 0.0000000000000000000, 0.0000000000000000000, 0.0000000000000000000 ) ) ;
#181 = CC_DESIGN_SECURITY_CLASSIFICATION ( #139, ( #112 ) ) ;
#182 = CYLINDRICAL_SURFACE ( 'NONE', #128, 0.7499999999999985567 ) ;
#183 = PERSON_AND_ORGANIZATION ( #157, #73 ) ;
#184 = ADVANCED_FACE ( 'NONE', ( #109, #17 ), #142, .T. ) ;
#185 =( NAMED_UNIT ( * ) SI_UNIT ( $, .STERADIAN. ) SOLID_ANGLE_UNIT ( ) );
#186 = VERTEX_POINT ( 'NONE', #200 ) ;
#187 = DATE_TIME_ROLE ( 'creation_date' ) ;
#188 = CIRCLE ( 'NONE', #162, 0.4399999999999976708 ) ;
#189 = PERSON_AND_ORGANIZATION ( #157, #73 ) ;
#190 = AXIS2_PLACEMENT_3D ( 'NONE', #111, #51, #195 ) ;
#191 = ORIENTED_EDGE ( 'NONE', *, *, #171, .T. ) ;
#192 = ORIENTED_EDGE ( 'NONE', *, *, #86, .T. ) ;
#193 = CC_DESIGN_DATE_AND_TIME_ASSIGNMENT ( #205, #220, ( #139 ) ) ;
#194 = CARTESIAN_POINT ( 'NONE',  ( 2.478951750578624682E-14, -1.029217060911823003E-31, 7.100000000000000533 ) ) ;
#195 = DIRECTION ( 'NONE',  ( -4.275831445896958607E-31, -1.000000000000000000, -1.224646799147353207E-16 ) ) ;
#196 = FACE_OUTER_BOUND ( 'NONE', #120, .T. ) ;
#197 = PLANE ( 'NONE',  #169 ) ;
#198 = APPROVAL_PERSON_ORGANIZATION ( #151, #7, #64 ) ;
#199 = ADVANCED_FACE ( 'NONE', ( #92 ), #102, .T. ) ;
#200 = CARTESIAN_POINT ( 'NONE',  ( 2.478951750578624682E-14, 0.4399999999999972267, 7.100000000000000533 ) ) ;
#201 = DIRECTION ( 'NONE',  ( 1.000000000000000000, 0.0000000000000000000, 0.0000000000000000000 ) ) ;
#202 = PERSON_AND_ORGANIZATION ( #157, #73 ) ;
#203 = UNCERTAINTY_MEASURE_WITH_UNIT (LENGTH_MEASURE( 1.000000000000000082E-05 ), #38, 'distance_accuracy_value', 'NONE');
#204 = AXIS2_PLACEMENT_3D ( 'NONE', #212, #141, #32 ) ;
#205 = DATE_AND_TIME ( #156, #130 ) ;
#206 = CC_DESIGN_PERSON_AND_ORGANIZATION_ASSIGNMENT ( #83, #153, ( #139 ) ) ;
#207 = DIRECTION ( 'NONE',  ( -3.491481338843133355E-15, 1.224646799147353207E-16, -1.000000000000000000 ) ) ;
#208 = AXIS2_PLACEMENT_3D ( 'NONE', #164, #178, #165 ) ;
#209 = DIRECTION ( 'NONE',  ( -3.491481338843133355E-15, 1.224646799147353207E-16, -1.000000000000000000 ) ) ;
#210 = DIRECTION ( 'NONE',  ( 3.491481338843133355E-15, -1.224646799147353207E-16, 1.000000000000000000 ) ) ;
#211 = ORIENTED_EDGE ( 'NONE', *, *, #63, .T. ) ;
#212 = CARTESIAN_POINT ( 'NONE',  ( 2.478951750578624682E-14, -8.694992273946207746E-16, 7.100000000000000533 ) ) ;
#213 = PERSON_AND_ORGANIZATION_ROLE ( 'creator' ) ;
#214 = VERTEX_POINT ( 'NONE', #132 ) ;
#215 = APPROVAL_DATE_TIME ( #23, #88 ) ;
#216 = PERSON_AND_ORGANIZATION_ROLE ( 'creator' ) ;
#217 = ADVANCED_BREP_SHAPE_REPRESENTATION ( '55340', ( #221, #77, #56 ), #70 ) ;
#218 = CC_DESIGN_APPROVAL ( #88, ( #127 ) ) ;
#219 = APPLICATION_PROTOCOL_DEFINITION ( 'international standard', 'config_control_design', 1994, #58 ) ;
#220 = DATE_TIME_ROLE ( 'classification_date' ) ;
#221 = MANIFOLD_SOLID_BREP ( 'Corps-Déplacer/Copier1[1]', #138 ) ;
#222 = EDGE_CURVE ( 'NONE', #186, #186, #78, .T. ) ;
#223 = EDGE_LOOP ( 'NONE', ( #1 ) ) ;
ENDSEC;
END-ISO-10303-21;
