ISO-10303-21;
HEADER;
FILE_DESCRIPTION (( 'STEP AP203' ),
    '1' );
FILE_NAME ('55339.step',
    '2021-10-08T05:14:45',
    ( '' ),
    ( '' ),
    'SwSTEP 2.0',
    'SolidWorks 2019',
    '' );
FILE_SCHEMA (( 'CONFIG_CONTROL_DESIGN' ));
ENDSEC;

DATA;
#1 = VERTEX_POINT ( 'NONE', #61 ) ;
#2 = AXIS2_PLACEMENT_3D ( 'NONE', #37, #21, #41 ) ;
#3 = APPLICATION_CONTEXT ( 'configuration controlled 3d designs of mechanical parts and assemblies' ) ;
#4 = PERSON_AND_ORGANIZATION_ROLE ( 'creator' ) ;
#5 = APPROVAL_STATUS ( 'not_yet_approved' ) ;
#6 = PERSON_AND_ORGANIZATION ( #220, #80 ) ;
#7 = AXIS2_PLACEMENT_3D ( 'NONE', #90, #50, #127 ) ;
#8 = CC_DESIGN_APPROVAL ( #213, ( #110 ) ) ;
#9 = COORDINATED_UNIVERSAL_TIME_OFFSET ( 1, 0, .AHEAD. ) ;
#10 = COORDINATED_UNIVERSAL_TIME_OFFSET ( 1, 0, .AHEAD. ) ;
#11 = FACE_OUTER_BOUND ( 'NONE', #216, .T. ) ;
#12 = CYLINDRICAL_SURFACE ( 'NONE', #217, 0.7499999999999985567 ) ;
#13 = CARTESIAN_POINT ( 'NONE',  ( 2.669445577364105877E-14, -9.363154674342904750E-16, 7.645596004384200839 ) ) ;
#14 = ORIENTED_EDGE ( 'NONE', *, *, #159, .F. ) ;
#15 = FACE_OUTER_BOUND ( 'NONE', #109, .T. ) ;
#16 = DIRECTION ( 'NONE',  ( -3.491481338843133355E-15, 1.224646799147353207E-16, -1.000000000000000000 ) ) ;
#17 = DIRECTION ( 'NONE',  ( -3.491481338843133355E-15, 1.224646799147353207E-16, -1.000000000000000000 ) ) ;
#18 = APPROVAL_PERSON_ORGANIZATION ( #23, #213, #139 ) ;
#19 = CARTESIAN_POINT ( 'NONE',  ( 0.0000000000000000000, 0.0000000000000000000, 0.0000000000000000000 ) ) ;
#20 = CARTESIAN_POINT ( 'NONE',  ( 1.047444401652940007E-13, -3.673940397442059178E-15, 30.00000000000000000 ) ) ;
#21 = DIRECTION ( 'NONE',  ( 3.491481338843133355E-15, -1.224646799147353207E-16, 1.000000000000000000 ) ) ;
#22 = EDGE_CURVE ( 'NONE', #78, #78, #93, .T. ) ;
#23 = PERSON_AND_ORGANIZATION ( #220, #80 ) ;
#24 = PRODUCT_DEFINITION_FORMATION_WITH_SPECIFIED_SOURCE ( 'ANY', '', #142, .NOT_KNOWN. ) ;
#25 = DATE_TIME_ROLE ( 'classification_date' ) ;
#26 = CC_DESIGN_PERSON_AND_ORGANIZATION_ASSIGNMENT ( #6, #172, ( #142 ) ) ;
#27 = ORIENTED_EDGE ( 'NONE', *, *, #206, .F. ) ;
#28 = AXIS2_PLACEMENT_3D ( 'NONE', #201, #177, #144 ) ;
#29 = FACE_OUTER_BOUND ( 'NONE', #214, .T. ) ;
#30 = APPROVAL ( #209, 'UNSPECIFIED' ) ;
#31 = DIRECTION ( 'NONE',  ( -4.427425159510905491E-31, -1.000000000000000000, -1.246209393661504549E-16 ) ) ;
#32 = DIRECTION ( 'NONE',  ( 4.427425159510905491E-31, 1.000000000000000000, 1.246209393661504549E-16 ) ) ;
#33 = AXIS2_PLACEMENT_3D ( 'NONE', #168, #132, #81 ) ;
#34 = EDGE_LOOP ( 'NONE', ( #167 ) ) ;
#35 = ADVANCED_BREP_SHAPE_REPRESENTATION ( '55339', ( #150, #152, #87 ), #138 ) ;
#36 = ADVANCED_FACE ( 'NONE', ( #49, #51 ), #67, .T. ) ;
#37 = CARTESIAN_POINT ( 'NONE',  ( 2.478951750578624682E-14, -1.029592000857488497E-31, 7.100000000000000533 ) ) ;
#38 =( NAMED_UNIT ( * ) SI_UNIT ( $, .STERADIAN. ) SOLID_ANGLE_UNIT ( ) );
#39 = CC_DESIGN_SECURITY_CLASSIFICATION ( #110, ( #24 ) ) ;
#40 = FACE_OUTER_BOUND ( 'NONE', #128, .T. ) ;
#41 = DIRECTION ( 'NONE',  ( -4.275831445896958607E-31, -1.000000000000000000, -1.224646799147353207E-16 ) ) ;
#42 = ADVANCED_FACE ( 'NONE', ( #29 ), #196, .T. ) ;
#43 = APPROVAL_DATE_TIME ( #66, #84 ) ;
#44 = AXIS2_PLACEMENT_3D ( 'NONE', #154, #96, #121 ) ;
#45 = SECURITY_CLASSIFICATION_LEVEL ( 'unclassified' ) ;
#46 = APPROVAL_ROLE ( '' ) ;
#47 = PERSON_AND_ORGANIZATION ( #220, #80 ) ;
#48 = ORIENTED_EDGE ( 'NONE', *, *, #22, .T. ) ;
#49 = FACE_BOUND ( 'NONE', #218, .T. ) ;
#50 = DIRECTION ( 'NONE',  ( 3.491481338843133355E-15, -1.224646799147353207E-16, 1.000000000000000000 ) ) ;
#51 = FACE_OUTER_BOUND ( 'NONE', #58, .T. ) ;
#52 = FACE_BOUND ( 'NONE', #34, .T. ) ;
#53 = DIRECTION ( 'NONE',  ( 0.0000000000000000000, 1.000000000000000000, 0.0000000000000000000 ) ) ;
#54 = LOCAL_TIME ( 7, 14, 45.00000000000000000, #10 ) ;
#55 = CARTESIAN_POINT ( 'NONE',  ( 2.478951750578624682E-14, 0.4349999999999983324, 7.100000000000000533 ) ) ;
#56 = CIRCLE ( 'NONE', #163, 0.7499999999999998890 ) ;
#57 = APPROVAL_ROLE ( '' ) ;
#58 = EDGE_LOOP ( 'NONE', ( #166 ) ) ;
#59 = DIRECTION ( 'NONE',  ( -3.491481338843133355E-15, 1.224646799147353207E-16, -1.000000000000000000 ) ) ;
#60 = CC_DESIGN_DATE_AND_TIME_ASSIGNMENT ( #70, #25, ( #110 ) ) ;
#61 = CARTESIAN_POINT ( 'NONE',  ( 2.478951750578624682E-14, 0.4349999999999983324, 7.100000000000000533 ) ) ;
#62 =( NAMED_UNIT ( * ) PLANE_ANGLE_UNIT ( ) SI_UNIT ( $, .RADIAN. ) );
#63 = ADVANCED_FACE ( 'NONE', ( #114, #76 ), #92, .T. ) ;
#64 = CARTESIAN_POINT ( 'NONE',  ( 2.478951750578624682E-14, -8.694992273946207746E-16, 7.100000000000000533 ) ) ;
#65 = DATE_TIME_ROLE ( 'creation_date' ) ;
#66 = DATE_AND_TIME ( #86, #208 ) ;
#67 = CONICAL_SURFACE ( 'NONE', #212, 0.7499999999999973355, 0.5235987755982931535 ) ;
#68 = APPROVAL_STATUS ( 'not_yet_approved' ) ;
#69 = LOCAL_TIME ( 7, 14, 45.00000000000000000, #104 ) ;
#70 = DATE_AND_TIME ( #158, #145 ) ;
#71 = PERSON_AND_ORGANIZATION ( #220, #80 ) ;
#72 = CONICAL_SURFACE ( 'NONE', #157, 0.5500000000000000444, 0.7853981633974510546 ) ;
#73 = ORIENTED_EDGE ( 'NONE', *, *, #22, .F. ) ;
#74 = CC_DESIGN_PERSON_AND_ORGANIZATION_ASSIGNMENT ( #210, #4, ( #105 ) ) ;
#75 = CARTESIAN_POINT ( 'NONE',  ( 9.125837327825063238E-16, -3.200912847142247153E-17, 0.2613743692769904814 ) ) ;
#76 = FACE_OUTER_BOUND ( 'NONE', #77, .T. ) ;
#77 = EDGE_LOOP ( 'NONE', ( #165 ) ) ;
#78 = VERTEX_POINT ( 'NONE', #118 ) ;
#79 = PLANE ( 'NONE',  #33 ) ;
#80 = ORGANIZATION ( 'UNSPECIFIED', 'UNSPECIFIED', '' ) ;
#81 = DIRECTION ( 'NONE',  ( 4.275831445896958607E-31, 1.000000000000000000, 1.224646799147353207E-16 ) ) ;
#82 = CARTESIAN_POINT ( 'NONE',  ( 1.047444401652940007E-13, -3.673940397442059178E-15, 30.00000000000000000 ) ) ;
#83 = FACE_OUTER_BOUND ( 'NONE', #125, .T. ) ;
#84 = APPROVAL ( #68, 'UNSPECIFIED' ) ;
#85 = COORDINATED_UNIVERSAL_TIME_OFFSET ( 1, 0, .AHEAD. ) ;
#86 = CALENDAR_DATE ( 2021, 8, 10 ) ;
#87 = AXIS2_PLACEMENT_3D ( 'NONE', #19, #169, #153 ) ;
#88 = PERSON_AND_ORGANIZATION ( #220, #80 ) ;
#89 = ORIENTED_EDGE ( 'NONE', *, *, #170, .F. ) ;
#90 = CARTESIAN_POINT ( 'NONE',  ( 2.478951750578624682E-14, -1.029592000857488497E-31, 7.100000000000000533 ) ) ;
#91 = ORIENTED_EDGE ( 'NONE', *, *, #159, .T. ) ;
#92 = CYLINDRICAL_SURFACE ( 'NONE', #28, 0.4349999999999986655 ) ;
#93 = CIRCLE ( 'NONE', #173, 0.4349999999999981659 ) ;
#94 = ADVANCED_FACE ( 'NONE', ( #15, #164 ), #12, .T. ) ;
#95 = CARTESIAN_POINT ( 'NONE',  ( 2.478951750578624682E-14, -8.694992273946207746E-16, 7.100000000000000533 ) ) ;
#96 = DIRECTION ( 'NONE',  ( -3.491481338843133355E-15, 1.224646799147353207E-16, -1.000000000000000000 ) ) ;
#97 = LOCAL_TIME ( 7, 14, 45.00000000000000000, #192 ) ;
#98 = CARTESIAN_POINT ( 'NONE',  ( 2.669445577364105877E-14, 0.7499999999999963363, 7.645596004384200839 ) ) ;
#99 = ADVANCED_FACE ( 'NONE', ( #11 ), #106, .T. ) ;
#100 = AXIS2_PLACEMENT_3D ( 'NONE', #95, #16, #53 ) ;
#101 = PRODUCT_DEFINITION_SHAPE ( 'NONE', 'NONE',  #105 ) ;
#102 = PERSON_AND_ORGANIZATION ( #220, #80 ) ;
#103 = CALENDAR_DATE ( 2021, 8, 10 ) ;
#104 = COORDINATED_UNIVERSAL_TIME_OFFSET ( 1, 0, .AHEAD. ) ;
#105 = PRODUCT_DEFINITION ( 'UNKNOWN', '', #24, #199 ) ;
#106 = CONICAL_SURFACE ( 'NONE', #116, 0.4349999999999981659, 1.029744258676649649 ) ;
#107 = PERSON_AND_ORGANIZATION ( #220, #80 ) ;
#108 = APPLICATION_CONTEXT ( 'configuration controlled 3d designs of mechanical parts and assemblies' ) ;
#109 = EDGE_LOOP ( 'NONE', ( #27 ) ) ;
#110 = SECURITY_CLASSIFICATION ( '', '', #45 ) ;
#111 = ORIENTED_EDGE ( 'NONE', *, *, #219, .T. ) ;
#112 = DIRECTION ( 'NONE',  ( 4.275831445896959482E-31, 1.000000000000000000, 1.224646799147353454E-16 ) ) ;
#113 = ADVANCED_FACE ( 'NONE', ( #40 ), #133, .F. ) ;
#114 = FACE_OUTER_BOUND ( 'NONE', #195, .T. ) ;
#115 = CARTESIAN_POINT ( 'NONE',  ( 0.0000000000000000000, 0.0000000000000000000, 0.0000000000000000000 ) ) ;
#116 = AXIS2_PLACEMENT_3D ( 'NONE', #75, #143, #31 ) ;
#117 = DIRECTION ( 'NONE',  ( -3.491481338843133355E-15, 1.224646799147353207E-16, -1.000000000000000000 ) ) ;
#118 = CARTESIAN_POINT ( 'NONE',  ( 9.125837327825065210E-16, 0.4349999999999981104, 0.2613743692769905369 ) ) ;
#119 = APPROVAL_PERSON_ORGANIZATION ( #47, #84, #46 ) ;
#120 = VERTEX_POINT ( 'NONE', #98 ) ;
#121 = DIRECTION ( 'NONE',  ( 0.0000000000000000000, 1.000000000000000000, 0.0000000000000000000 ) ) ;
#122 = DATE_AND_TIME ( #161, #69 ) ;
#123 = APPROVAL_DATE_TIME ( #207, #30 ) ;
#124 = AXIS2_PLACEMENT_3D ( 'NONE', #82, #151, #204 ) ;
#125 = EDGE_LOOP ( 'NONE', ( #89 ) ) ;
#126 = CC_DESIGN_APPROVAL ( #84, ( #105 ) ) ;
#127 = DIRECTION ( 'NONE',  ( -4.275831445896958607E-31, -1.000000000000000000, -1.224646799147353207E-16 ) ) ;
#128 = EDGE_LOOP ( 'NONE', ( #91 ) ) ;
#129 = CARTESIAN_POINT ( 'NONE',  ( 1.047444401652940007E-13, 0.5499999999999963807, 30.00000000000000000 ) ) ;
#130 = CIRCLE ( 'NONE', #44, 0.7499999999999973355 ) ;
#131 = CC_DESIGN_DATE_AND_TIME_ASSIGNMENT ( #122, #65, ( #105 ) ) ;
#132 = DIRECTION ( 'NONE',  ( -3.491481338843133355E-15, 1.224646799147353207E-16, -1.000000000000000000 ) ) ;
#133 = PLANE ( 'NONE',  #2 ) ;
#134 = DIRECTION ( 'NONE',  ( -3.491481338843133355E-15, 1.224646799147353207E-16, -1.000000000000000000 ) ) ;
#135 = AXIS2_PLACEMENT_3D ( 'NONE', #64, #134, #189 ) ;
#136 = MECHANICAL_CONTEXT ( 'NONE', #3, 'mechanical' ) ;
#137 = PERSON_AND_ORGANIZATION_ROLE ( 'classification_officer' ) ;
#138 =( GEOMETRIC_REPRESENTATION_CONTEXT ( 3 ) GLOBAL_UNCERTAINTY_ASSIGNED_CONTEXT ( ( #222 ) ) GLOBAL_UNIT_ASSIGNED_CONTEXT ( ( #185, #62, #38 ) ) REPRESENTATION_CONTEXT ( 'NONE', 'WORKASPACE' ) );
#139 = APPROVAL_ROLE ( '' ) ;
#140 = DATE_AND_TIME ( #176, #54 ) ;
#141 = DIRECTION ( 'NONE',  ( -3.491481338843133355E-15, 1.224646799147353207E-16, -1.000000000000000000 ) ) ;
#142 = PRODUCT ( '55339', '55339', '', ( #136 ) ) ;
#143 = DIRECTION ( 'NONE',  ( 3.491481338843133355E-15, -1.224646799147353207E-16, 1.000000000000000000 ) ) ;
#144 = DIRECTION ( 'NONE',  ( 4.275831445896958607E-31, 1.000000000000000000, 1.224646799147353207E-16 ) ) ;
#145 = LOCAL_TIME ( 7, 14, 45.00000000000000000, #9 ) ;
#146 = EDGE_LOOP ( 'NONE', ( #111 ) ) ;
#147 = ORIENTED_EDGE ( 'NONE', *, *, #194, .F. ) ;
#148 = PRODUCT_RELATED_PRODUCT_CATEGORY ( 'detail', '', ( #142 ) ) ;
#149 = CARTESIAN_POINT ( 'NONE',  ( 1.040461438975253740E-13, 0.7499999999999962252, 29.80000000000000071 ) ) ;
#150 = MANIFOLD_SOLID_BREP ( 'Corps-Déplacer/Copier1[1]', #197 ) ;
#151 = DIRECTION ( 'NONE',  ( -3.491481338843133355E-15, 1.224646799147353207E-16, -1.000000000000000000 ) ) ;
#152 = MANIFOLD_SOLID_BREP ( 'Corps-Déplacer/Copier1[2]', #180 ) ;
#153 = DIRECTION ( 'NONE',  ( 1.000000000000000000, 0.0000000000000000000, 0.0000000000000000000 ) ) ;
#154 = CARTESIAN_POINT ( 'NONE',  ( 2.669445577364105877E-14, -9.363154674342904750E-16, 7.645596004384200839 ) ) ;
#155 = CC_DESIGN_PERSON_AND_ORGANIZATION_ASSIGNMENT ( #102, #162, ( #24 ) ) ;
#156 = DIRECTION ( 'NONE',  ( 0.0000000000000000000, 1.000000000000000000, 0.0000000000000000000 ) ) ;
#157 = AXIS2_PLACEMENT_3D ( 'NONE', #20, #17, #186 ) ;
#158 = CALENDAR_DATE ( 2021, 8, 10 ) ;
#159 = EDGE_CURVE ( 'NONE', #1, #1, #191, .T. ) ;
#160 = APPROVAL_DATE_TIME ( #140, #213 ) ;
#161 = CALENDAR_DATE ( 2021, 8, 10 ) ;
#162 = PERSON_AND_ORGANIZATION_ROLE ( 'design_supplier' ) ;
#163 = AXIS2_PLACEMENT_3D ( 'NONE', #221, #117, #156 ) ;
#164 = FACE_OUTER_BOUND ( 'NONE', #146, .T. ) ;
#165 = ORIENTED_EDGE ( 'NONE', *, *, #194, .T. ) ;
#166 = ORIENTED_EDGE ( 'NONE', *, *, #206, .T. ) ;
#167 = ORIENTED_EDGE ( 'NONE', *, *, #170, .T. ) ;
#168 = CARTESIAN_POINT ( 'NONE',  ( 1.047444401652940007E-13, 4.124339402320052999E-33, 30.00000000000000000 ) ) ;
#169 = DIRECTION ( 'NONE',  ( 0.0000000000000000000, 0.0000000000000000000, 1.000000000000000000 ) ) ;
#170 = EDGE_CURVE ( 'NONE', #205, #205, #179, .T. ) ;
#171 = VERTEX_POINT ( 'NONE', #149 ) ;
#172 = PERSON_AND_ORGANIZATION_ROLE ( 'design_owner' ) ;
#173 = AXIS2_PLACEMENT_3D ( 'NONE', #182, #59, #32 ) ;
#174 = PERSON_AND_ORGANIZATION_ROLE ( 'creator' ) ;
#175 = APPROVAL_PERSON_ORGANIZATION ( #71, #30, #57 ) ;
#176 = CALENDAR_DATE ( 2021, 8, 10 ) ;
#177 = DIRECTION ( 'NONE',  ( -3.491481338843133355E-15, 1.224646799147353207E-16, -1.000000000000000000 ) ) ;
#178 = CC_DESIGN_PERSON_AND_ORGANIZATION_ASSIGNMENT ( #88, #174, ( #24 ) ) ;
#179 = CIRCLE ( 'NONE', #124, 0.5500000000000000444 ) ;
#180 = CLOSED_SHELL ( 'NONE', ( #99, #63, #42 ) ) ;
#181 = ADVANCED_FACE ( 'NONE', ( #203, #52 ), #72, .T. ) ;
#182 = CARTESIAN_POINT ( 'NONE',  ( 9.125837327825063238E-16, -3.200912847142247153E-17, 0.2613743692769904814 ) ) ;
#183 = EDGE_LOOP ( 'NONE', ( #184 ) ) ;
#184 = ORIENTED_EDGE ( 'NONE', *, *, #219, .F. ) ;
#185 =( LENGTH_UNIT ( ) NAMED_UNIT ( * ) SI_UNIT ( .MILLI., .METRE. ) );
#186 = DIRECTION ( 'NONE',  ( 0.0000000000000000000, 1.000000000000000000, 0.0000000000000000000 ) ) ;
#187 = APPLICATION_PROTOCOL_DEFINITION ( 'international standard', 'config_control_design', 1994, #3 ) ;
#188 = VERTEX_POINT ( 'NONE', #55 ) ;
#189 = DIRECTION ( 'NONE',  ( 0.0000000000000000000, 1.000000000000000000, 0.0000000000000000000 ) ) ;
#190 = ADVANCED_FACE ( 'NONE', ( #83 ), #79, .F. ) ;
#191 = CIRCLE ( 'NONE', #135, 0.4349999999999991651 ) ;
#192 = COORDINATED_UNIVERSAL_TIME_OFFSET ( 1, 0, .AHEAD. ) ;
#193 = SHAPE_DEFINITION_REPRESENTATION ( #101, #35 ) ;
#194 = EDGE_CURVE ( 'NONE', #188, #188, #202, .T. ) ;
#195 = EDGE_LOOP ( 'NONE', ( #73 ) ) ;
#196 = PLANE ( 'NONE',  #7 ) ;
#197 = CLOSED_SHELL ( 'NONE', ( #113, #36, #94, #181, #190 ) ) ;
#198 = CC_DESIGN_APPROVAL ( #30, ( #24 ) ) ;
#199 = DESIGN_CONTEXT ( 'detailed design', #108, 'design' ) ;
#200 = DIRECTION ( 'NONE',  ( 0.0000000000000000000, -1.000000000000000000, 0.0000000000000000000 ) ) ;
#201 = CARTESIAN_POINT ( 'NONE',  ( 0.0000000000000000000, 0.0000000000000000000, 0.0000000000000000000 ) ) ;
#202 = CIRCLE ( 'NONE', #100, 0.4349999999999991651 ) ;
#203 = FACE_OUTER_BOUND ( 'NONE', #183, .T. ) ;
#204 = DIRECTION ( 'NONE',  ( 0.0000000000000000000, 1.000000000000000000, 0.0000000000000000000 ) ) ;
#205 = VERTEX_POINT ( 'NONE', #129 ) ;
#206 = EDGE_CURVE ( 'NONE', #120, #120, #130, .T. ) ;
#207 = DATE_AND_TIME ( #103, #97 ) ;
#208 = LOCAL_TIME ( 7, 14, 45.00000000000000000, #85 ) ;
#209 = APPROVAL_STATUS ( 'not_yet_approved' ) ;
#210 = PERSON_AND_ORGANIZATION ( #220, #80 ) ;
#211 = APPLICATION_PROTOCOL_DEFINITION ( 'international standard', 'config_control_design', 1994, #108 ) ;
#212 = AXIS2_PLACEMENT_3D ( 'NONE', #13, #215, #200 ) ;
#213 = APPROVAL ( #5, 'UNSPECIFIED' ) ;
#214 = EDGE_LOOP ( 'NONE', ( #147 ) ) ;
#215 = DIRECTION ( 'NONE',  ( 3.491481338843133355E-15, -1.224646799147353207E-16, 1.000000000000000000 ) ) ;
#216 = EDGE_LOOP ( 'NONE', ( #48 ) ) ;
#217 = AXIS2_PLACEMENT_3D ( 'NONE', #115, #141, #112 ) ;
#218 = EDGE_LOOP ( 'NONE', ( #14 ) ) ;
#219 = EDGE_CURVE ( 'NONE', #171, #171, #56, .T. ) ;
#220 = PERSON ( 'UNSPECIFIED', 'UNSPECIFIED', 'UNSPECIFIED', ('UNSPECIFIED'), ('UNSPECIFIED'), ('UNSPECIFIED') ) ;
#221 = CARTESIAN_POINT ( 'NONE',  ( 1.040461438975253740E-13, -3.649447461459112464E-15, 29.80000000000000071 ) ) ;
#222 = UNCERTAINTY_MEASURE_WITH_UNIT (LENGTH_MEASURE( 1.000000000000000082E-05 ), #185, 'distance_accuracy_value', 'NONE');
#223 = CC_DESIGN_PERSON_AND_ORGANIZATION_ASSIGNMENT ( #107, #137, ( #110 ) ) ;
ENDSEC;
END-ISO-10303-21;
