ISO-10303-21;
HEADER;
FILE_DESCRIPTION (( 'STEP AP203' ),
    '1' );
FILE_NAME ('55338.step',
    '2021-10-08T05:14:44',
    ( '' ),
    ( '' ),
    'SwSTEP 2.0',
    'SolidWorks 2019',
    '' );
FILE_SCHEMA (( 'CONFIG_CONTROL_DESIGN' ));
ENDSEC;

DATA;
#1 = DIRECTION ( 'NONE',  ( 3.491481338843133355E-15, -1.224646799147353207E-16, 1.000000000000000000 ) ) ;
#2 = DIRECTION ( 'NONE',  ( 3.491481338843133355E-15, -1.224646799147353207E-16, 1.000000000000000000 ) ) ;
#3 = DIRECTION ( 'NONE',  ( -3.491481338843133355E-15, 1.224646799147353207E-16, -1.000000000000000000 ) ) ;
#4 = DIRECTION ( 'NONE',  ( 0.0000000000000000000, 1.000000000000000000, 0.0000000000000000000 ) ) ;
#5 = CIRCLE ( 'NONE', #136, 0.5500000000000000444 ) ;
#6 =( NAMED_UNIT ( * ) SI_UNIT ( $, .STERADIAN. ) SOLID_ANGLE_UNIT ( ) );
#7 = EDGE_LOOP ( 'NONE', ( #125 ) ) ;
#8 = AXIS2_PLACEMENT_3D ( 'NONE', #25, #41, #112 ) ;
#9 = APPROVAL_PERSON_ORGANIZATION ( #10, #91, #42 ) ;
#10 = PERSON_AND_ORGANIZATION ( #222, #74 ) ;
#11 = MECHANICAL_CONTEXT ( 'NONE', #77, 'mechanical' ) ;
#12 = CC_DESIGN_PERSON_AND_ORGANIZATION_ASSIGNMENT ( #145, #212, ( #99 ) ) ;
#13 = CARTESIAN_POINT ( 'NONE',  ( 2.478951750578624367E-14, 0.4299999999999981060, 7.099999999999999645 ) ) ;
#14 = APPLICATION_CONTEXT ( 'configuration controlled 3d designs of mechanical parts and assemblies' ) ;
#15 = APPROVAL_DATE_TIME ( #200, #57 ) ;
#16 = COORDINATED_UNIVERSAL_TIME_OFFSET ( 1, 0, .AHEAD. ) ;
#17 = PRODUCT_RELATED_PRODUCT_CATEGORY ( 'detail', '', ( #40 ) ) ;
#18 = CARTESIAN_POINT ( 'NONE',  ( 1.047444401652940007E-13, 4.124339402320052999E-33, 30.00000000000000000 ) ) ;
#19 = CARTESIAN_POINT ( 'NONE',  ( 2.478951750578624367E-14, 3.224483532722972919E-33, 7.099999999999999645 ) ) ;
#20 = PLANE ( 'NONE',  #169 ) ;
#21 = CARTESIAN_POINT ( 'NONE',  ( 1.047444401652940007E-13, -3.673940397442059178E-15, 30.00000000000000000 ) ) ;
#22 = EDGE_LOOP ( 'NONE', ( #201 ) ) ;
#23 = AXIS2_PLACEMENT_3D ( 'NONE', #105, #140, #138 ) ;
#24 = FACE_OUTER_BOUND ( 'NONE', #22, .T. ) ;
#25 = CARTESIAN_POINT ( 'NONE',  ( 0.0000000000000000000, 0.0000000000000000000, 0.0000000000000000000 ) ) ;
#26 = ADVANCED_FACE ( 'NONE', ( #154, #186 ), #174, .T. ) ;
#27 = APPROVAL_DATE_TIME ( #72, #91 ) ;
#28 = LOCAL_TIME ( 7, 14, 44.00000000000000000, #130 ) ;
#29 = ADVANCED_FACE ( 'NONE', ( #157, #209 ), #185, .T. ) ;
#30 = PERSON_AND_ORGANIZATION ( #222, #74 ) ;
#31 = CIRCLE ( 'NONE', #165, 0.4299999999999983280 ) ;
#32 = CALENDAR_DATE ( 2021, 8, 10 ) ;
#33 = DIRECTION ( 'NONE',  ( -3.491481338843133355E-15, 1.224646799147353207E-16, -1.000000000000000000 ) ) ;
#34 = DIRECTION ( 'NONE',  ( -4.275831445896958607E-31, -1.000000000000000000, -1.224646799147353207E-16 ) ) ;
#35 = DIRECTION ( 'NONE',  ( -3.491481338843133355E-15, 1.224646799147353207E-16, -1.000000000000000000 ) ) ;
#36 = DIRECTION ( 'NONE',  ( -3.491481338843133355E-15, 1.224646799147353207E-16, -1.000000000000000000 ) ) ;
#37 = FACE_OUTER_BOUND ( 'NONE', #221, .T. ) ;
#38 = ADVANCED_FACE ( 'NONE', ( #24 ), #153, .F. ) ;
#39 = DIRECTION ( 'NONE',  ( -3.491481338843133355E-15, 1.224646799147353207E-16, -1.000000000000000000 ) ) ;
#40 = PRODUCT ( '55338', '55338', '', ( #11 ) ) ;
#41 = DIRECTION ( 'NONE',  ( 0.0000000000000000000, 0.0000000000000000000, 1.000000000000000000 ) ) ;
#42 = APPROVAL_ROLE ( '' ) ;
#43 = CIRCLE ( 'NONE', #79, 0.7499999999999998890 ) ;
#44 = VERTEX_POINT ( 'NONE', #191 ) ;
#45 = PERSON_AND_ORGANIZATION ( #222, #74 ) ;
#46 = CIRCLE ( 'NONE', #73, 0.4299999999999989386 ) ;
#47 = EDGE_LOOP ( 'NONE', ( #83 ) ) ;
#48 = APPROVAL_PERSON_ORGANIZATION ( #166, #57, #202 ) ;
#49 = UNCERTAINTY_MEASURE_WITH_UNIT (LENGTH_MEASURE( 1.000000000000000082E-05 ), #214, 'distance_accuracy_value', 'NONE');
#50 = APPROVAL ( #149, 'UNSPECIFIED' ) ;
#51 = DIRECTION ( 'NONE',  ( 0.0000000000000000000, 1.000000000000000000, 0.0000000000000000000 ) ) ;
#52 = CC_DESIGN_SECURITY_CLASSIFICATION ( #134, ( #116 ) ) ;
#53 = CYLINDRICAL_SURFACE ( 'NONE', #182, 0.7499999999999985567 ) ;
#54 = DIRECTION ( 'NONE',  ( 4.275831445896958607E-31, 1.000000000000000000, 1.224646799147353207E-16 ) ) ;
#55 = DIRECTION ( 'NONE',  ( 3.491481338843133355E-15, -1.224646799147353207E-16, 1.000000000000000000 ) ) ;
#56 = FACE_OUTER_BOUND ( 'NONE', #175, .T. ) ;
#57 = APPROVAL ( #151, 'UNSPECIFIED' ) ;
#58 = PERSON_AND_ORGANIZATION ( #222, #74 ) ;
#59 = VERTEX_POINT ( 'NONE', #13 ) ;
#60 = ORIENTED_EDGE ( 'NONE', *, *, #217, .F. ) ;
#61 =( GEOMETRIC_REPRESENTATION_CONTEXT ( 3 ) GLOBAL_UNCERTAINTY_ASSIGNED_CONTEXT ( ( #49 ) ) GLOBAL_UNIT_ASSIGNED_CONTEXT ( ( #214, #97, #6 ) ) REPRESENTATION_CONTEXT ( 'NONE', 'WORKASPACE' ) );
#62 = CALENDAR_DATE ( 2021, 8, 10 ) ;
#63 = CC_DESIGN_PERSON_AND_ORGANIZATION_ASSIGNMENT ( #101, #163, ( #116 ) ) ;
#64 = APPROVAL_DATE_TIME ( #197, #50 ) ;
#65 = ORIENTED_EDGE ( 'NONE', *, *, #181, .T. ) ;
#66 = CARTESIAN_POINT ( 'NONE',  ( 2.478951750578624367E-14, 3.224483532722972919E-33, 7.099999999999999645 ) ) ;
#67 = DIRECTION ( 'NONE',  ( -4.275831445896958607E-31, -1.000000000000000000, -1.224646799147353207E-16 ) ) ;
#68 = FACE_OUTER_BOUND ( 'NONE', #85, .T. ) ;
#69 = CC_DESIGN_PERSON_AND_ORGANIZATION_ASSIGNMENT ( #45, #164, ( #134 ) ) ;
#70 = EDGE_LOOP ( 'NONE', ( #155 ) ) ;
#71 = EDGE_LOOP ( 'NONE', ( #167 ) ) ;
#72 = DATE_AND_TIME ( #110, #96 ) ;
#73 = AXIS2_PLACEMENT_3D ( 'NONE', #128, #36, #188 ) ;
#74 = ORGANIZATION ( 'UNSPECIFIED', 'UNSPECIFIED', '' ) ;
#75 = CARTESIAN_POINT ( 'NONE',  ( 1.047444401652940007E-13, -3.673940397442059178E-15, 30.00000000000000000 ) ) ;
#76 = PERSON_AND_ORGANIZATION ( #222, #74 ) ;
#77 = APPLICATION_CONTEXT ( 'configuration controlled 3d designs of mechanical parts and assemblies' ) ;
#78 = VERTEX_POINT ( 'NONE', #148 ) ;
#79 = AXIS2_PLACEMENT_3D ( 'NONE', #170, #3, #51 ) ;
#80 = PERSON_AND_ORGANIZATION_ROLE ( 'design_owner' ) ;
#81 = EDGE_CURVE ( 'NONE', #44, #44, #211, .T. ) ;
#82 = EDGE_LOOP ( 'NONE', ( #60 ) ) ;
#83 = ORIENTED_EDGE ( 'NONE', *, *, #181, .F. ) ;
#84 = DATE_AND_TIME ( #62, #88 ) ;
#85 = EDGE_LOOP ( 'NONE', ( #143 ) ) ;
#86 = AXIS2_PLACEMENT_3D ( 'NONE', #18, #123, #161 ) ;
#87 = CARTESIAN_POINT ( 'NONE',  ( 0.0000000000000000000, 0.0000000000000000000, 0.0000000000000000000 ) ) ;
#88 = LOCAL_TIME ( 7, 14, 44.00000000000000000, #180 ) ;
#89 = FACE_OUTER_BOUND ( 'NONE', #82, .T. ) ;
#90 = PRODUCT_DEFINITION_SHAPE ( 'NONE', 'NONE',  #99 ) ;
#91 = APPROVAL ( #178, 'UNSPECIFIED' ) ;
#92 = FACE_OUTER_BOUND ( 'NONE', #47, .T. ) ;
#93 = DIRECTION ( 'NONE',  ( 0.0000000000000000000, -1.000000000000000000, 0.0000000000000000000 ) ) ;
#94 = COORDINATED_UNIVERSAL_TIME_OFFSET ( 1, 0, .AHEAD. ) ;
#95 = VERTEX_POINT ( 'NONE', #98 ) ;
#96 = LOCAL_TIME ( 7, 14, 44.00000000000000000, #94 ) ;
#97 =( NAMED_UNIT ( * ) PLANE_ANGLE_UNIT ( ) SI_UNIT ( $, .RADIAN. ) );
#98 = CARTESIAN_POINT ( 'NONE',  ( 9.020942645896040407E-16, 0.4299999999999982725, 0.2583700661818527089 ) ) ;
#99 = PRODUCT_DEFINITION ( 'UNKNOWN', '', #116, #203 ) ;
#100 = AXIS2_PLACEMENT_3D ( 'NONE', #21, #35, #184 ) ;
#101 = PERSON_AND_ORGANIZATION ( #222, #74 ) ;
#102 = DIRECTION ( 'NONE',  ( -3.491481338843133355E-15, 1.224646799147353207E-16, -1.000000000000000000 ) ) ;
#103 = EDGE_CURVE ( 'NONE', #159, #159, #43, .T. ) ;
#104 = AXIS2_PLACEMENT_3D ( 'NONE', #176, #162, #190 ) ;
#105 = CARTESIAN_POINT ( 'NONE',  ( 2.478951750578624367E-14, -8.694992273946207746E-16, 7.099999999999999645 ) ) ;
#106 = ADVANCED_FACE ( 'NONE', ( #68 ), #139, .T. ) ;
#107 = PLANE ( 'NONE',  #86 ) ;
#108 = CARTESIAN_POINT ( 'NONE',  ( 2.672469288900383381E-14, -9.373760426730153220E-16, 7.654256258422044823 ) ) ;
#109 = AXIS2_PLACEMENT_3D ( 'NONE', #205, #127, #206 ) ;
#110 = CALENDAR_DATE ( 2021, 8, 10 ) ;
#111 = CC_DESIGN_APPROVAL ( #57, ( #134 ) ) ;
#112 = DIRECTION ( 'NONE',  ( 1.000000000000000000, 0.0000000000000000000, 0.0000000000000000000 ) ) ;
#113 = CALENDAR_DATE ( 2021, 8, 10 ) ;
#114 = CLOSED_SHELL ( 'NONE', ( #38, #29, #173, #26, #208 ) ) ;
#115 = CALENDAR_DATE ( 2021, 8, 10 ) ;
#116 = PRODUCT_DEFINITION_FORMATION_WITH_SPECIFIED_SOURCE ( 'ANY', '', #40, .NOT_KNOWN. ) ;
#117 = CC_DESIGN_DATE_AND_TIME_ASSIGNMENT ( #177, #160, ( #99 ) ) ;
#118 = AXIS2_PLACEMENT_3D ( 'NONE', #183, #33, #54 ) ;
#119 = SHAPE_DEFINITION_REPRESENTATION ( #90, #124 ) ;
#120 = EDGE_LOOP ( 'NONE', ( #189 ) ) ;
#121 = AXIS2_PLACEMENT_3D ( 'NONE', #66, #1, #34 ) ;
#122 = CYLINDRICAL_SURFACE ( 'NONE', #118, 0.4299999999999986611 ) ;
#123 = DIRECTION ( 'NONE',  ( -3.491481338843133355E-15, 1.224646799147353207E-16, -1.000000000000000000 ) ) ;
#124 = ADVANCED_BREP_SHAPE_REPRESENTATION ( '55338', ( #141, #147, #8 ), #61 ) ;
#125 = ORIENTED_EDGE ( 'NONE', *, *, #81, .F. ) ;
#126 = ADVANCED_FACE ( 'NONE', ( #207, #156 ), #122, .T. ) ;
#127 = DIRECTION ( 'NONE',  ( 3.491481338843133355E-15, -1.224646799147353207E-16, 1.000000000000000000 ) ) ;
#128 = CARTESIAN_POINT ( 'NONE',  ( 2.478951750578624367E-14, -8.694992273946207746E-16, 7.099999999999999645 ) ) ;
#129 = VERTEX_POINT ( 'NONE', #131 ) ;
#130 = COORDINATED_UNIVERSAL_TIME_OFFSET ( 1, 0, .AHEAD. ) ;
#131 = CARTESIAN_POINT ( 'NONE',  ( 2.672469288900383381E-14, 0.7499999999999963363, 7.654256258422044823 ) ) ;
#132 = APPROVAL_ROLE ( '' ) ;
#133 = EDGE_CURVE ( 'NONE', #95, #95, #31, .T. ) ;
#134 = SECURITY_CLASSIFICATION ( '', '', #135 ) ;
#135 = SECURITY_CLASSIFICATION_LEVEL ( 'unclassified' ) ;
#136 = AXIS2_PLACEMENT_3D ( 'NONE', #75, #39, #4 ) ;
#137 = CC_DESIGN_PERSON_AND_ORGANIZATION_ASSIGNMENT ( #58, #80, ( #40 ) ) ;
#138 = DIRECTION ( 'NONE',  ( 0.0000000000000000000, 1.000000000000000000, 0.0000000000000000000 ) ) ;
#139 = CONICAL_SURFACE ( 'NONE', #109, 0.4299999999999983280, 1.029744258676649871 ) ;
#140 = DIRECTION ( 'NONE',  ( -3.491481338843133355E-15, 1.224646799147353207E-16, -1.000000000000000000 ) ) ;
#141 = MANIFOLD_SOLID_BREP ( 'Corps-Déplacer/Copier1[1]', #114 ) ;
#142 = ORIENTED_EDGE ( 'NONE', *, *, #220, .F. ) ;
#143 = ORIENTED_EDGE ( 'NONE', *, *, #133, .T. ) ;
#144 = ADVANCED_FACE ( 'NONE', ( #92 ), #20, .T. ) ;
#145 = PERSON_AND_ORGANIZATION ( #222, #74 ) ;
#146 = CLOSED_SHELL ( 'NONE', ( #106, #126, #144 ) ) ;
#147 = MANIFOLD_SOLID_BREP ( 'Corps-Déplacer/Copier1[2]', #146 ) ;
#148 = CARTESIAN_POINT ( 'NONE',  ( 1.047444401652940007E-13, 0.5499999999999963807, 30.00000000000000000 ) ) ;
#149 = APPROVAL_STATUS ( 'not_yet_approved' ) ;
#150 = ORIENTED_EDGE ( 'NONE', *, *, #103, .T. ) ;
#151 = APPROVAL_STATUS ( 'not_yet_approved' ) ;
#152 = LOCAL_TIME ( 7, 14, 44.00000000000000000, #193 ) ;
#153 = PLANE ( 'NONE',  #121 ) ;
#154 = FACE_OUTER_BOUND ( 'NONE', #70, .T. ) ;
#155 = ORIENTED_EDGE ( 'NONE', *, *, #103, .F. ) ;
#156 = FACE_OUTER_BOUND ( 'NONE', #172, .T. ) ;
#157 = FACE_BOUND ( 'NONE', #7, .T. ) ;
#158 = LOCAL_TIME ( 7, 14, 44.00000000000000000, #16 ) ;
#159 = VERTEX_POINT ( 'NONE', #179 ) ;
#160 = DATE_TIME_ROLE ( 'creation_date' ) ;
#161 = DIRECTION ( 'NONE',  ( 4.275831445896958607E-31, 1.000000000000000000, 1.224646799147353207E-16 ) ) ;
#162 = DIRECTION ( 'NONE',  ( -3.491481338843133355E-15, 1.224646799147353207E-16, -1.000000000000000000 ) ) ;
#163 = PERSON_AND_ORGANIZATION_ROLE ( 'design_supplier' ) ;
#164 = PERSON_AND_ORGANIZATION_ROLE ( 'classification_officer' ) ;
#165 = AXIS2_PLACEMENT_3D ( 'NONE', #223, #102, #168 ) ;
#166 = PERSON_AND_ORGANIZATION ( #222, #74 ) ;
#167 = ORIENTED_EDGE ( 'NONE', *, *, #217, .T. ) ;
#168 = DIRECTION ( 'NONE',  ( 4.478906847412194102E-31, 1.000000000000000000, 1.260700200564545022E-16 ) ) ;
#169 = AXIS2_PLACEMENT_3D ( 'NONE', #19, #2, #67 ) ;
#170 = CARTESIAN_POINT ( 'NONE',  ( 1.040461438975253740E-13, -3.649447461459112464E-15, 29.80000000000000071 ) ) ;
#171 = DIRECTION ( 'NONE',  ( 4.275831445896959482E-31, 1.000000000000000000, 1.224646799147353454E-16 ) ) ;
#172 = EDGE_LOOP ( 'NONE', ( #65 ) ) ;
#173 = ADVANCED_FACE ( 'NONE', ( #89, #56 ), #53, .T. ) ;
#174 = CONICAL_SURFACE ( 'NONE', #100, 0.5500000000000000444, 0.7853981633974510546 ) ;
#175 = EDGE_LOOP ( 'NONE', ( #150 ) ) ;
#176 = CARTESIAN_POINT ( 'NONE',  ( 2.672469288900383381E-14, -9.373760426730153220E-16, 7.654256258422044823 ) ) ;
#177 = DATE_AND_TIME ( #113, #28 ) ;
#178 = APPROVAL_STATUS ( 'not_yet_approved' ) ;
#179 = CARTESIAN_POINT ( 'NONE',  ( 1.040461438975253740E-13, 0.7499999999999962252, 29.80000000000000071 ) ) ;
#180 = COORDINATED_UNIVERSAL_TIME_OFFSET ( 1, 0, .AHEAD. ) ;
#181 = EDGE_CURVE ( 'NONE', #59, #59, #46, .T. ) ;
#182 = AXIS2_PLACEMENT_3D ( 'NONE', #87, #187, #171 ) ;
#183 = CARTESIAN_POINT ( 'NONE',  ( 0.0000000000000000000, 0.0000000000000000000, 0.0000000000000000000 ) ) ;
#184 = DIRECTION ( 'NONE',  ( 0.0000000000000000000, 1.000000000000000000, 0.0000000000000000000 ) ) ;
#185 = CONICAL_SURFACE ( 'NONE', #216, 0.7499999999999973355, 0.5235987755982929315 ) ;
#186 = FACE_BOUND ( 'NONE', #120, .T. ) ;
#187 = DIRECTION ( 'NONE',  ( -3.491481338843133355E-15, 1.224646799147353207E-16, -1.000000000000000000 ) ) ;
#188 = DIRECTION ( 'NONE',  ( 0.0000000000000000000, 1.000000000000000000, 0.0000000000000000000 ) ) ;
#189 = ORIENTED_EDGE ( 'NONE', *, *, #220, .T. ) ;
#190 = DIRECTION ( 'NONE',  ( 0.0000000000000000000, 1.000000000000000000, 0.0000000000000000000 ) ) ;
#191 = CARTESIAN_POINT ( 'NONE',  ( 2.478951750578624367E-14, 0.4299999999999981060, 7.099999999999999645 ) ) ;
#192 = EDGE_LOOP ( 'NONE', ( #199 ) ) ;
#193 = COORDINATED_UNIVERSAL_TIME_OFFSET ( 1, 0, .AHEAD. ) ;
#194 = APPROVAL_PERSON_ORGANIZATION ( #76, #50, #132 ) ;
#195 = CC_DESIGN_PERSON_AND_ORGANIZATION_ASSIGNMENT ( #30, #218, ( #116 ) ) ;
#196 = DATE_TIME_ROLE ( 'classification_date' ) ;
#197 = DATE_AND_TIME ( #115, #152 ) ;
#198 = CIRCLE ( 'NONE', #104, 0.7499999999999973355 ) ;
#199 = ORIENTED_EDGE ( 'NONE', *, *, #133, .F. ) ;
#200 = DATE_AND_TIME ( #32, #158 ) ;
#201 = ORIENTED_EDGE ( 'NONE', *, *, #81, .T. ) ;
#202 = APPROVAL_ROLE ( '' ) ;
#203 = DESIGN_CONTEXT ( 'detailed design', #14, 'design' ) ;
#204 = CC_DESIGN_DATE_AND_TIME_ASSIGNMENT ( #84, #196, ( #134 ) ) ;
#205 = CARTESIAN_POINT ( 'NONE',  ( 9.020942645896038434E-16, -3.164120745450956496E-17, 0.2583700661818526534 ) ) ;
#206 = DIRECTION ( 'NONE',  ( -4.478906847412194102E-31, -1.000000000000000000, -1.260700200564545022E-16 ) ) ;
#207 = FACE_OUTER_BOUND ( 'NONE', #192, .T. ) ;
#208 = ADVANCED_FACE ( 'NONE', ( #37 ), #107, .F. ) ;
#209 = FACE_OUTER_BOUND ( 'NONE', #71, .T. ) ;
#210 = CC_DESIGN_APPROVAL ( #50, ( #116 ) ) ;
#211 = CIRCLE ( 'NONE', #23, 0.4299999999999989386 ) ;
#212 = PERSON_AND_ORGANIZATION_ROLE ( 'creator' ) ;
#213 = APPLICATION_PROTOCOL_DEFINITION ( 'international standard', 'config_control_design', 1994, #77 ) ;
#214 =( LENGTH_UNIT ( ) NAMED_UNIT ( * ) SI_UNIT ( .MILLI., .METRE. ) );
#215 = APPLICATION_PROTOCOL_DEFINITION ( 'international standard', 'config_control_design', 1994, #14 ) ;
#216 = AXIS2_PLACEMENT_3D ( 'NONE', #108, #55, #93 ) ;
#217 = EDGE_CURVE ( 'NONE', #129, #129, #198, .T. ) ;
#218 = PERSON_AND_ORGANIZATION_ROLE ( 'creator' ) ;
#219 = CC_DESIGN_APPROVAL ( #91, ( #99 ) ) ;
#220 = EDGE_CURVE ( 'NONE', #78, #78, #5, .T. ) ;
#221 = EDGE_LOOP ( 'NONE', ( #142 ) ) ;
#222 = PERSON ( 'UNSPECIFIED', 'UNSPECIFIED', 'UNSPECIFIED', ('UNSPECIFIED'), ('UNSPECIFIED'), ('UNSPECIFIED') ) ;
#223 = CARTESIAN_POINT ( 'NONE',  ( 9.020942645896038434E-16, -3.164120745450956496E-17, 0.2583700661818526534 ) ) ;
ENDSEC;
END-ISO-10303-21;
