ISO-10303-21;
HEADER;
FILE_DESCRIPTION (( 'STEP AP203' ),
    '1' );
FILE_NAME ('55337.step',
    '2021-10-08T05:14:44',
    ( '' ),
    ( '' ),
    'SwSTEP 2.0',
    'SolidWorks 2019',
    '' );
FILE_SCHEMA (( 'CONFIG_CONTROL_DESIGN' ));
ENDSEC;

DATA;
#1 = PLANE ( 'NONE',  #20 ) ;
#2 = VERTEX_POINT ( 'NONE', #97 ) ;
#3 = AXIS2_PLACEMENT_3D ( 'NONE', #78, #217, #55 ) ;
#4 = CARTESIAN_POINT ( 'NONE',  ( 0.0000000000000000000, 0.0000000000000000000, 0.0000000000000000000 ) ) ;
#5 = SECURITY_CLASSIFICATION_LEVEL ( 'unclassified' ) ;
#6 = APPROVAL ( #26, 'UNSPECIFIED' ) ;
#7 = FACE_OUTER_BOUND ( 'NONE', #100, .T. ) ;
#8 = CC_DESIGN_APPROVAL ( #115, ( #137 ) ) ;
#9 = FACE_BOUND ( 'NONE', #58, .T. ) ;
#10 = AXIS2_PLACEMENT_3D ( 'NONE', #209, #111, #155 ) ;
#11 = FACE_OUTER_BOUND ( 'NONE', #99, .T. ) ;
#12 = AXIS2_PLACEMENT_3D ( 'NONE', #75, #174, #108 ) ;
#13 = FACE_OUTER_BOUND ( 'NONE', #192, .T. ) ;
#14 = CC_DESIGN_PERSON_AND_ORGANIZATION_ASSIGNMENT ( #135, #221, ( #137 ) ) ;
#15 = CONICAL_SURFACE ( 'NONE', #3, 0.7499999999999972244, 0.5235987755982930425 ) ;
#16 = COORDINATED_UNIVERSAL_TIME_OFFSET ( 1, 0, .AHEAD. ) ;
#17 = CARTESIAN_POINT ( 'NONE',  ( 2.396174493329210217E-14, 0.7499999999999963363, 6.862916512459889873 ) ) ;
#18 = CC_DESIGN_PERSON_AND_ORGANIZATION_ASSIGNMENT ( #30, #71, ( #188 ) ) ;
#19 = DATE_AND_TIME ( #95, #149 ) ;
#20 = AXIS2_PLACEMENT_3D ( 'NONE', #185, #144, #63 ) ;
#21 = ADVANCED_BREP_SHAPE_REPRESENTATION ( '55337', ( #68, #67, #12 ), #211 ) ;
#22 = DATE_AND_TIME ( #200, #106 ) ;
#23 = ORIENTED_EDGE ( 'NONE', *, *, #31, .F. ) ;
#24 = ORIENTED_EDGE ( 'NONE', *, *, #145, .F. ) ;
#25 = APPROVAL ( #143, 'UNSPECIFIED' ) ;
#26 = APPROVAL_STATUS ( 'not_yet_approved' ) ;
#27 = PERSON_AND_ORGANIZATION ( #194, #218 ) ;
#28 = EDGE_LOOP ( 'NONE', ( #98 ) ) ;
#29 = CIRCLE ( 'NONE', #216, 0.4249999999999999334 ) ;
#30 = PERSON_AND_ORGANIZATION ( #194, #218 ) ;
#31 = EDGE_CURVE ( 'NONE', #169, #169, #198, .T. ) ;
#32 =( NAMED_UNIT ( * ) PLANE_ANGLE_UNIT ( ) SI_UNIT ( $, .RADIAN. ) );
#33 = DIRECTION ( 'NONE',  ( 3.491481338843133355E-15, -1.224646799147353207E-16, 1.000000000000000000 ) ) ;
#34 = VERTEX_POINT ( 'NONE', #152 ) ;
#35 = DATE_AND_TIME ( #40, #177 ) ;
#36 = DIRECTION ( 'NONE',  ( 0.0000000000000000000, 1.000000000000000000, 0.0000000000000000000 ) ) ;
#37 = DIRECTION ( 'NONE',  ( 4.275831445896958607E-31, 1.000000000000000000, 1.224646799147353454E-16 ) ) ;
#38 = CONICAL_SURFACE ( 'NONE', #69, 0.4249999999999982681, 1.029744258676649871 ) ;
#39 = ADVANCED_FACE ( 'NONE', ( #11 ), #79, .T. ) ;
#40 = CALENDAR_DATE ( 2021, 8, 10 ) ;
#41 = CC_DESIGN_DATE_AND_TIME_ASSIGNMENT ( #22, #60, ( #166 ) ) ;
#42 = APPROVAL_ROLE ( '' ) ;
#43 = DIRECTION ( 'NONE',  ( -3.491481338843133355E-15, 1.224646799147353207E-16, -1.000000000000000000 ) ) ;
#44 = EDGE_CURVE ( 'NONE', #204, #204, #222, .T. ) ;
#45 = CARTESIAN_POINT ( 'NONE',  ( 8.916047963967015603E-16, -3.127328643759665838E-17, 0.2553657630867148254 ) ) ;
#46 =( NAMED_UNIT ( * ) SI_UNIT ( $, .STERADIAN. ) SOLID_ANGLE_UNIT ( ) );
#47 = CYLINDRICAL_SURFACE ( 'NONE', #161, 0.4249999999999991007 ) ;
#48 = DIRECTION ( 'NONE',  ( -3.491481338843133355E-15, 1.224646799147353207E-16, -1.000000000000000000 ) ) ;
#49 = CARTESIAN_POINT ( 'NONE',  ( 8.916047963967017575E-16, 0.4249999999999982681, 0.2553657630867148809 ) ) ;
#50 = DIRECTION ( 'NONE',  ( -3.491481338843133355E-15, 1.224646799147353207E-16, -1.000000000000000000 ) ) ;
#51 = VERTEX_POINT ( 'NONE', #96 ) ;
#52 = APPROVAL_ROLE ( '' ) ;
#53 = DATE_AND_TIME ( #178, #199 ) ;
#54 = AXIS2_PLACEMENT_3D ( 'NONE', #89, #50, #172 ) ;
#55 = DIRECTION ( 'NONE',  ( 0.0000000000000000000, -1.000000000000000000, 0.0000000000000000000 ) ) ;
#56 = EDGE_LOOP ( 'NONE', ( #114 ) ) ;
#57 = EDGE_CURVE ( 'NONE', #34, #34, #160, .T. ) ;
#58 = EDGE_LOOP ( 'NONE', ( #24 ) ) ;
#59 = LOCAL_TIME ( 7, 14, 44.00000000000000000, #126 ) ;
#60 = DATE_TIME_ROLE ( 'classification_date' ) ;
#61 = EDGE_LOOP ( 'NONE', ( #158 ) ) ;
#62 = CYLINDRICAL_SURFACE ( 'NONE', #104, 0.7499999999999984457 ) ;
#63 = DIRECTION ( 'NONE',  ( -4.275831445896958607E-31, -1.000000000000000000, -1.224646799147353207E-16 ) ) ;
#64 = ADVANCED_FACE ( 'NONE', ( #9, #7 ), #15, .T. ) ;
#65 = PERSON_AND_ORGANIZATION ( #194, #218 ) ;
#66 = ADVANCED_FACE ( 'NONE', ( #132, #134 ), #113, .T. ) ;
#67 = MANIFOLD_SOLID_BREP ( 'Corps-Déplacer/Copier1[2]', #74 ) ;
#68 = MANIFOLD_SOLID_BREP ( 'Corps-Déplacer/Copier1[1]', #165 ) ;
#69 = AXIS2_PLACEMENT_3D ( 'NONE', #122, #179, #215 ) ;
#70 = APPLICATION_PROTOCOL_DEFINITION ( 'international standard', 'config_control_design', 1994, #136 ) ;
#71 = PERSON_AND_ORGANIZATION_ROLE ( 'design_owner' ) ;
#72 = DIRECTION ( 'NONE',  ( -3.491481338843133355E-15, 1.224646799147353207E-16, -1.000000000000000000 ) ) ;
#73 = APPLICATION_CONTEXT ( 'configuration controlled 3d designs of mechanical parts and assemblies' ) ;
#74 = CLOSED_SHELL ( 'NONE', ( #159, #223, #39 ) ) ;
#75 = CARTESIAN_POINT ( 'NONE',  ( 0.0000000000000000000, 0.0000000000000000000, 0.0000000000000000000 ) ) ;
#76 = CIRCLE ( 'NONE', #184, 0.5500000000000000444 ) ;
#77 = PRODUCT_DEFINITION_SHAPE ( 'NONE', 'NONE',  #197 ) ;
#78 = CARTESIAN_POINT ( 'NONE',  ( 2.396174493329210217E-14, -8.404648739799521294E-16, 6.862916512459889873 ) ) ;
#79 = PLANE ( 'NONE',  #102 ) ;
#80 = CC_DESIGN_APPROVAL ( #25, ( #197 ) ) ;
#81 = ORIENTED_EDGE ( 'NONE', *, *, #44, .F. ) ;
#82 = PERSON_AND_ORGANIZATION ( #194, #218 ) ;
#83 = UNCERTAINTY_MEASURE_WITH_UNIT (LENGTH_MEASURE( 1.000000000000000082E-05 ), #153, 'distance_accuracy_value', 'NONE');
#84 = EDGE_CURVE ( 'NONE', #51, #51, #183, .T. ) ;
#85 = DIRECTION ( 'NONE',  ( 4.275831445896958607E-31, 1.000000000000000000, 1.224646799147353207E-16 ) ) ;
#86 = DIRECTION ( 'NONE',  ( 4.531599869146455796E-31, 1.000000000000000000, 1.275531967630010422E-16 ) ) ;
#87 = DIRECTION ( 'NONE',  ( -3.491481338843133355E-15, 1.224646799147353207E-16, -1.000000000000000000 ) ) ;
#88 = APPROVAL_PERSON_ORGANIZATION ( #140, #25, #139 ) ;
#89 = CARTESIAN_POINT ( 'NONE',  ( 1.047444401652940007E-13, -3.673940397442059178E-15, 30.00000000000000000 ) ) ;
#90 = CC_DESIGN_PERSON_AND_ORGANIZATION_ASSIGNMENT ( #212, #154, ( #197 ) ) ;
#91 = DIRECTION ( 'NONE',  ( 0.0000000000000000000, 1.000000000000000000, 0.0000000000000000000 ) ) ;
#92 = DIRECTION ( 'NONE',  ( -3.491481338843133355E-15, 1.224646799147353207E-16, -1.000000000000000000 ) ) ;
#93 = ORIENTED_EDGE ( 'NONE', *, *, #145, .T. ) ;
#94 = CARTESIAN_POINT ( 'NONE',  ( 1.040461438975253740E-13, -3.649447461459112464E-15, 29.80000000000000071 ) ) ;
#95 = CALENDAR_DATE ( 2021, 8, 10 ) ;
#96 = CARTESIAN_POINT ( 'NONE',  ( 1.040461438975253740E-13, 0.7499999999999962252, 29.80000000000000071 ) ) ;
#97 = CARTESIAN_POINT ( 'NONE',  ( 2.199633243471174645E-14, 0.4249999999999991562, 6.300000000000001599 ) ) ;
#98 = ORIENTED_EDGE ( 'NONE', *, *, #181, .F. ) ;
#99 = EDGE_LOOP ( 'NONE', ( #103 ) ) ;
#100 = EDGE_LOOP ( 'NONE', ( #162 ) ) ;
#101 = EDGE_LOOP ( 'NONE', ( #133 ) ) ;
#102 = AXIS2_PLACEMENT_3D ( 'NONE', #141, #33, #107 ) ;
#103 = ORIENTED_EDGE ( 'NONE', *, *, #57, .F. ) ;
#104 = AXIS2_PLACEMENT_3D ( 'NONE', #164, #43, #37 ) ;
#105 = DIRECTION ( 'NONE',  ( 0.0000000000000000000, 1.000000000000000000, 0.0000000000000000000 ) ) ;
#106 = LOCAL_TIME ( 7, 14, 44.00000000000000000, #201 ) ;
#107 = DIRECTION ( 'NONE',  ( -4.275831445896958607E-31, -1.000000000000000000, -1.224646799147353207E-16 ) ) ;
#108 = DIRECTION ( 'NONE',  ( 1.000000000000000000, 0.0000000000000000000, 0.0000000000000000000 ) ) ;
#109 = ADVANCED_FACE ( 'NONE', ( #196, #118 ), #62, .T. ) ;
#110 = APPLICATION_PROTOCOL_DEFINITION ( 'international standard', 'config_control_design', 1994, #73 ) ;
#111 = DIRECTION ( 'NONE',  ( -3.491481338843133355E-15, 1.224646799147353207E-16, -1.000000000000000000 ) ) ;
#112 = DATE_AND_TIME ( #191, #59 ) ;
#113 = CONICAL_SURFACE ( 'NONE', #54, 0.5500000000000000444, 0.7853981633974510546 ) ;
#114 = ORIENTED_EDGE ( 'NONE', *, *, #181, .T. ) ;
#115 = APPROVAL ( #157, 'UNSPECIFIED' ) ;
#116 = FACE_OUTER_BOUND ( 'NONE', #195, .T. ) ;
#117 = EDGE_LOOP ( 'NONE', ( #23 ) ) ;
#118 = FACE_OUTER_BOUND ( 'NONE', #171, .T. ) ;
#119 = APPROVAL_DATE_TIME ( #35, #6 ) ;
#120 = ORIENTED_EDGE ( 'NONE', *, *, #84, .T. ) ;
#121 = FACE_OUTER_BOUND ( 'NONE', #28, .T. ) ;
#122 = CARTESIAN_POINT ( 'NONE',  ( 8.916047963967015603E-16, -3.127328643759665838E-17, 0.2553657630867148254 ) ) ;
#123 = EDGE_LOOP ( 'NONE', ( #81 ) ) ;
#124 = AXIS2_PLACEMENT_3D ( 'NONE', #94, #48, #125 ) ;
#125 = DIRECTION ( 'NONE',  ( 0.0000000000000000000, 1.000000000000000000, 0.0000000000000000000 ) ) ;
#126 = COORDINATED_UNIVERSAL_TIME_OFFSET ( 1, 0, .AHEAD. ) ;
#127 = AXIS2_PLACEMENT_3D ( 'NONE', #205, #151, #105 ) ;
#128 = COORDINATED_UNIVERSAL_TIME_OFFSET ( 1, 0, .AHEAD. ) ;
#129 = CARTESIAN_POINT ( 'NONE',  ( 2.396174493329210217E-14, -8.404648739799521294E-16, 6.862916512459889873 ) ) ;
#130 = CC_DESIGN_SECURITY_CLASSIFICATION ( #166, ( #137 ) ) ;
#131 = CC_DESIGN_PERSON_AND_ORGANIZATION_ASSIGNMENT ( #65, #182, ( #137 ) ) ;
#132 = FACE_OUTER_BOUND ( 'NONE', #61, .T. ) ;
#133 = ORIENTED_EDGE ( 'NONE', *, *, #44, .T. ) ;
#134 = FACE_BOUND ( 'NONE', #56, .T. ) ;
#135 = PERSON_AND_ORGANIZATION ( #194, #218 ) ;
#136 = APPLICATION_CONTEXT ( 'configuration controlled 3d designs of mechanical parts and assemblies' ) ;
#137 = PRODUCT_DEFINITION_FORMATION_WITH_SPECIFIED_SOURCE ( 'ANY', '', #188, .NOT_KNOWN. ) ;
#138 = DESIGN_CONTEXT ( 'detailed design', #73, 'design' ) ;
#139 = APPROVAL_ROLE ( '' ) ;
#140 = PERSON_AND_ORGANIZATION ( #194, #218 ) ;
#141 = CARTESIAN_POINT ( 'NONE',  ( 2.199633243471174329E-14, -1.030341880748819267E-31, 6.300000000000000711 ) ) ;
#142 = MECHANICAL_CONTEXT ( 'NONE', #136, 'mechanical' ) ;
#143 = APPROVAL_STATUS ( 'not_yet_approved' ) ;
#144 = DIRECTION ( 'NONE',  ( 3.491481338843133355E-15, -1.224646799147353207E-16, 1.000000000000000000 ) ) ;
#145 = EDGE_CURVE ( 'NONE', #2, #2, #29, .T. ) ;
#146 = SHAPE_DEFINITION_REPRESENTATION ( #77, #21 ) ;
#147 = ORIENTED_EDGE ( 'NONE', *, *, #57, .T. ) ;
#148 = COORDINATED_UNIVERSAL_TIME_OFFSET ( 1, 0, .AHEAD. ) ;
#149 = LOCAL_TIME ( 7, 14, 44.00000000000000000, #16 ) ;
#150 = FACE_OUTER_BOUND ( 'NONE', #101, .T. ) ;
#151 = DIRECTION ( 'NONE',  ( -3.491481338843133355E-15, 1.224646799147353207E-16, -1.000000000000000000 ) ) ;
#152 = CARTESIAN_POINT ( 'NONE',  ( 2.199633243471174645E-14, 0.4249999999999991562, 6.300000000000001599 ) ) ;
#153 =( LENGTH_UNIT ( ) NAMED_UNIT ( * ) SI_UNIT ( .MILLI., .METRE. ) );
#154 = PERSON_AND_ORGANIZATION_ROLE ( 'creator' ) ;
#155 = DIRECTION ( 'NONE',  ( 4.275831445896958607E-31, 1.000000000000000000, 1.224646799147353207E-16 ) ) ;
#156 = VERTEX_POINT ( 'NONE', #186 ) ;
#157 = APPROVAL_STATUS ( 'not_yet_approved' ) ;
#158 = ORIENTED_EDGE ( 'NONE', *, *, #84, .F. ) ;
#159 = ADVANCED_FACE ( 'NONE', ( #150 ), #38, .T. ) ;
#160 = CIRCLE ( 'NONE', #127, 0.4249999999999999334 ) ;
#161 = AXIS2_PLACEMENT_3D ( 'NONE', #4, #168, #85 ) ;
#162 = ORIENTED_EDGE ( 'NONE', *, *, #31, .T. ) ;
#163 = ADVANCED_FACE ( 'NONE', ( #116 ), #1, .F. ) ;
#164 = CARTESIAN_POINT ( 'NONE',  ( 0.0000000000000000000, 0.0000000000000000000, 0.0000000000000000000 ) ) ;
#165 = CLOSED_SHELL ( 'NONE', ( #163, #64, #109, #66, #173 ) ) ;
#166 = SECURITY_CLASSIFICATION ( '', '', #5 ) ;
#167 = CC_DESIGN_PERSON_AND_ORGANIZATION_ASSIGNMENT ( #82, #214, ( #166 ) ) ;
#168 = DIRECTION ( 'NONE',  ( -3.491481338843133355E-15, 1.224646799147353207E-16, -1.000000000000000000 ) ) ;
#169 = VERTEX_POINT ( 'NONE', #17 ) ;
#170 = APPROVAL_PERSON_ORGANIZATION ( #27, #6, #42 ) ;
#171 = EDGE_LOOP ( 'NONE', ( #120 ) ) ;
#172 = DIRECTION ( 'NONE',  ( 0.0000000000000000000, 1.000000000000000000, 0.0000000000000000000 ) ) ;
#173 = ADVANCED_FACE ( 'NONE', ( #121 ), #175, .F. ) ;
#174 = DIRECTION ( 'NONE',  ( 0.0000000000000000000, 0.0000000000000000000, 1.000000000000000000 ) ) ;
#175 = PLANE ( 'NONE',  #10 ) ;
#176 = PERSON_AND_ORGANIZATION ( #194, #218 ) ;
#177 = LOCAL_TIME ( 7, 14, 44.00000000000000000, #128 ) ;
#178 = CALENDAR_DATE ( 2021, 8, 10 ) ;
#179 = DIRECTION ( 'NONE',  ( 3.491481338843133355E-15, -1.224646799147353207E-16, 1.000000000000000000 ) ) ;
#180 = CC_DESIGN_APPROVAL ( #6, ( #166 ) ) ;
#181 = EDGE_CURVE ( 'NONE', #156, #156, #76, .T. ) ;
#182 = PERSON_AND_ORGANIZATION_ROLE ( 'design_supplier' ) ;
#183 = CIRCLE ( 'NONE', #124, 0.7499999999999998890 ) ;
#184 = AXIS2_PLACEMENT_3D ( 'NONE', #208, #72, #91 ) ;
#185 = CARTESIAN_POINT ( 'NONE',  ( 2.199633243471174329E-14, -1.030341880748819267E-31, 6.300000000000000711 ) ) ;
#186 = CARTESIAN_POINT ( 'NONE',  ( 1.047444401652940007E-13, 0.5499999999999963807, 30.00000000000000000 ) ) ;
#187 = PRODUCT_RELATED_PRODUCT_CATEGORY ( 'detail', '', ( #188 ) ) ;
#188 = PRODUCT ( '55337', '55337', '', ( #142 ) ) ;
#189 = DIRECTION ( 'NONE',  ( -3.491481338843133355E-15, 1.224646799147353207E-16, -1.000000000000000000 ) ) ;
#190 = AXIS2_PLACEMENT_3D ( 'NONE', #129, #87, #36 ) ;
#191 = CALENDAR_DATE ( 2021, 8, 10 ) ;
#192 = EDGE_LOOP ( 'NONE', ( #147 ) ) ;
#193 = DATE_TIME_ROLE ( 'creation_date' ) ;
#194 = PERSON ( 'UNSPECIFIED', 'UNSPECIFIED', 'UNSPECIFIED', ('UNSPECIFIED'), ('UNSPECIFIED'), ('UNSPECIFIED') ) ;
#195 = EDGE_LOOP ( 'NONE', ( #93 ) ) ;
#196 = FACE_OUTER_BOUND ( 'NONE', #117, .T. ) ;
#197 = PRODUCT_DEFINITION ( 'UNKNOWN', '', #137, #138 ) ;
#198 = CIRCLE ( 'NONE', #190, 0.7499999999999972244 ) ;
#199 = LOCAL_TIME ( 7, 14, 44.00000000000000000, #148 ) ;
#200 = CALENDAR_DATE ( 2021, 8, 10 ) ;
#201 = COORDINATED_UNIVERSAL_TIME_OFFSET ( 1, 0, .AHEAD. ) ;
#202 = AXIS2_PLACEMENT_3D ( 'NONE', #45, #189, #86 ) ;
#203 = APPROVAL_PERSON_ORGANIZATION ( #176, #115, #52 ) ;
#204 = VERTEX_POINT ( 'NONE', #49 ) ;
#205 = CARTESIAN_POINT ( 'NONE',  ( 2.199633243471174645E-14, -7.715274834628327350E-16, 6.300000000000001599 ) ) ;
#206 = CC_DESIGN_DATE_AND_TIME_ASSIGNMENT ( #112, #193, ( #197 ) ) ;
#207 = CARTESIAN_POINT ( 'NONE',  ( 2.199633243471174645E-14, -7.715274834628327350E-16, 6.300000000000001599 ) ) ;
#208 = CARTESIAN_POINT ( 'NONE',  ( 1.047444401652940007E-13, -3.673940397442059178E-15, 30.00000000000000000 ) ) ;
#209 = CARTESIAN_POINT ( 'NONE',  ( 1.047444401652940007E-13, 4.124339402320052999E-33, 30.00000000000000000 ) ) ;
#210 = FACE_OUTER_BOUND ( 'NONE', #123, .T. ) ;
#211 =( GEOMETRIC_REPRESENTATION_CONTEXT ( 3 ) GLOBAL_UNCERTAINTY_ASSIGNED_CONTEXT ( ( #83 ) ) GLOBAL_UNIT_ASSIGNED_CONTEXT ( ( #153, #32, #46 ) ) REPRESENTATION_CONTEXT ( 'NONE', 'WORKASPACE' ) );
#212 = PERSON_AND_ORGANIZATION ( #194, #218 ) ;
#213 = APPROVAL_DATE_TIME ( #19, #25 ) ;
#214 = PERSON_AND_ORGANIZATION_ROLE ( 'classification_officer' ) ;
#215 = DIRECTION ( 'NONE',  ( -4.531599869146455796E-31, -1.000000000000000000, -1.275531967630010422E-16 ) ) ;
#216 = AXIS2_PLACEMENT_3D ( 'NONE', #207, #92, #220 ) ;
#217 = DIRECTION ( 'NONE',  ( 3.491481338843133355E-15, -1.224646799147353207E-16, 1.000000000000000000 ) ) ;
#218 = ORGANIZATION ( 'UNSPECIFIED', 'UNSPECIFIED', '' ) ;
#219 = APPROVAL_DATE_TIME ( #53, #115 ) ;
#220 = DIRECTION ( 'NONE',  ( 0.0000000000000000000, 1.000000000000000000, 0.0000000000000000000 ) ) ;
#221 = PERSON_AND_ORGANIZATION_ROLE ( 'creator' ) ;
#222 = CIRCLE ( 'NONE', #202, 0.4249999999999982681 ) ;
#223 = ADVANCED_FACE ( 'NONE', ( #210, #13 ), #47, .T. ) ;
ENDSEC;
END-ISO-10303-21;
