ISO-10303-21;
HEADER;
FILE_DESCRIPTION (( 'STEP AP203' ),
    '1' );
FILE_NAME ('55336.step',
    '2021-10-08T05:14:43',
    ( '' ),
    ( '' ),
    'SwSTEP 2.0',
    'SolidWorks 2019',
    '' );
FILE_SCHEMA (( 'CONFIG_CONTROL_DESIGN' ));
ENDSEC;

DATA;
#1 = DIRECTION ( 'NONE',  ( -3.491481338843133355E-15, 1.224646799147353207E-16, -1.000000000000000000 ) ) ;
#2 = CLOSED_SHELL ( 'NONE', ( #140, #106, #88 ) ) ;
#3 = CC_DESIGN_PERSON_AND_ORGANIZATION_ASSIGNMENT ( #222, #58, ( #135 ) ) ;
#4 = CARTESIAN_POINT ( 'NONE',  ( 8.811153282037993758E-16, 0.4199999999999982081, 0.2523614599915770529 ) ) ;
#5 = PERSON_AND_ORGANIZATION_ROLE ( 'design_supplier' ) ;
#6 = VERTEX_POINT ( 'NONE', #98 ) ;
#7 = PERSON_AND_ORGANIZATION_ROLE ( 'creator' ) ;
#8 = CIRCLE ( 'NONE', #217, 0.7499999999999972244 ) ;
#9 = CARTESIAN_POINT ( 'NONE',  ( 0.0000000000000000000, 0.0000000000000000000, 0.0000000000000000000 ) ) ;
#10 = EDGE_LOOP ( 'NONE', ( #171 ) ) ;
#11 = ORIENTED_EDGE ( 'NONE', *, *, #180, .F. ) ;
#12 = DIRECTION ( 'NONE',  ( -3.491481338843133355E-15, 1.224646799147353207E-16, -1.000000000000000000 ) ) ;
#13 = AXIS2_PLACEMENT_3D ( 'NONE', #51, #134, #204 ) ;
#14 = PRODUCT_DEFINITION_SHAPE ( 'NONE', 'NONE',  #135 ) ;
#15 = CC_DESIGN_PERSON_AND_ORGANIZATION_ASSIGNMENT ( #52, #5, ( #164 ) ) ;
#16 = CIRCLE ( 'NONE', #46, 0.4199999999999982636 ) ;
#17 = ADVANCED_BREP_SHAPE_REPRESENTATION ( '55336', ( #54, #214, #172 ), #57 ) ;
#18 = PERSON_AND_ORGANIZATION ( #203, #113 ) ;
#19 = CARTESIAN_POINT ( 'NONE',  ( 0.0000000000000000000, 0.0000000000000000000, 0.0000000000000000000 ) ) ;
#20 = CIRCLE ( 'NONE', #169, 0.4199999999999992628 ) ;
#21 = EDGE_LOOP ( 'NONE', ( #107 ) ) ;
#22 = PRODUCT_RELATED_PRODUCT_CATEGORY ( 'detail', '', ( #110 ) ) ;
#23 = DIRECTION ( 'NONE',  ( 4.275831445896959482E-31, 1.000000000000000000, 1.224646799147353207E-16 ) ) ;
#24 = APPROVAL_PERSON_ORGANIZATION ( #36, #202, #101 ) ;
#25 = APPLICATION_CONTEXT ( 'configuration controlled 3d designs of mechanical parts and assemblies' ) ;
#26 = CARTESIAN_POINT ( 'NONE',  ( 1.040461438975253740E-13, -3.649447461459112464E-15, 29.80000000000000071 ) ) ;
#27 = DIRECTION ( 'NONE',  ( 4.275831445896958607E-31, 1.000000000000000000, 1.224646799147353207E-16 ) ) ;
#28 = CARTESIAN_POINT ( 'NONE',  ( 2.199633243471174014E-14, -7.715274834628325378E-16, 6.299999999999999822 ) ) ;
#29 = AXIS2_PLACEMENT_3D ( 'NONE', #112, #213, #178 ) ;
#30 = CARTESIAN_POINT ( 'NONE',  ( 2.399198204865487722E-14, -8.415254492186769764E-16, 6.871576766497733857 ) ) ;
#31 = FACE_OUTER_BOUND ( 'NONE', #187, .T. ) ;
#32 = LOCAL_TIME ( 7, 14, 43.00000000000000000, #72 ) ;
#33 = COORDINATED_UNIVERSAL_TIME_OFFSET ( 1, 0, .AHEAD. ) ;
#34 = APPROVAL_ROLE ( '' ) ;
#35 = ORIENTED_EDGE ( 'NONE', *, *, #130, .F. ) ;
#36 = PERSON_AND_ORGANIZATION ( #203, #113 ) ;
#37 = FACE_OUTER_BOUND ( 'NONE', #116, .T. ) ;
#38 = CC_DESIGN_PERSON_AND_ORGANIZATION_ASSIGNMENT ( #74, #49, ( #66 ) ) ;
#39 = FACE_OUTER_BOUND ( 'NONE', #63, .T. ) ;
#40 = PERSON_AND_ORGANIZATION ( #203, #113 ) ;
#41 = APPROVAL_DATE_TIME ( #220, #163 ) ;
#42 = VERTEX_POINT ( 'NONE', #176 ) ;
#43 = ORIENTED_EDGE ( 'NONE', *, *, #180, .T. ) ;
#44 = CIRCLE ( 'NONE', #115, 0.4199999999999992628 ) ;
#45 = DIRECTION ( 'NONE',  ( -3.491481338843133355E-15, 1.224646799147353207E-16, -1.000000000000000000 ) ) ;
#46 = AXIS2_PLACEMENT_3D ( 'NONE', #105, #175, #161 ) ;
#47 = PERSON_AND_ORGANIZATION ( #203, #113 ) ;
#48 = LOCAL_TIME ( 7, 14, 43.00000000000000000, #212 ) ;
#49 = PERSON_AND_ORGANIZATION_ROLE ( 'classification_officer' ) ;
#50 = PLANE ( 'NONE',  #146 ) ;
#51 = CARTESIAN_POINT ( 'NONE',  ( 2.399198204865487722E-14, -8.415254492186769764E-16, 6.871576766497733857 ) ) ;
#52 = PERSON_AND_ORGANIZATION ( #203, #113 ) ;
#53 = APPLICATION_PROTOCOL_DEFINITION ( 'international standard', 'config_control_design', 1994, #25 ) ;
#54 = MANIFOLD_SOLID_BREP ( 'Corps-Déplacer/Copier1[1]', #182 ) ;
#55 = EDGE_CURVE ( 'NONE', #6, #6, #80, .T. ) ;
#56 = APPLICATION_CONTEXT ( 'configuration controlled 3d designs of mechanical parts and assemblies' ) ;
#57 =( GEOMETRIC_REPRESENTATION_CONTEXT ( 3 ) GLOBAL_UNCERTAINTY_ASSIGNED_CONTEXT ( ( #121 ) ) GLOBAL_UNIT_ASSIGNED_CONTEXT ( ( #147, #89, #201 ) ) REPRESENTATION_CONTEXT ( 'NONE', 'WORKASPACE' ) );
#58 = PERSON_AND_ORGANIZATION_ROLE ( 'creator' ) ;
#59 = VERTEX_POINT ( 'NONE', #141 ) ;
#60 = DIRECTION ( 'NONE',  ( -4.275831445896958607E-31, -1.000000000000000000, -1.224646799147353207E-16 ) ) ;
#61 = SHAPE_DEFINITION_REPRESENTATION ( #14, #17 ) ;
#62 = CC_DESIGN_PERSON_AND_ORGANIZATION_ASSIGNMENT ( #40, #68, ( #110 ) ) ;
#63 = EDGE_LOOP ( 'NONE', ( #35 ) ) ;
#64 = PLANE ( 'NONE',  #92 ) ;
#65 = AXIS2_PLACEMENT_3D ( 'NONE', #219, #122, #60 ) ;
#66 = SECURITY_CLASSIFICATION ( '', '', #136 ) ;
#67 = FACE_OUTER_BOUND ( 'NONE', #10, .T. ) ;
#68 = PERSON_AND_ORGANIZATION_ROLE ( 'design_owner' ) ;
#69 = APPROVAL_PERSON_ORGANIZATION ( #18, #144, #133 ) ;
#70 = CARTESIAN_POINT ( 'NONE',  ( 2.199633243471174014E-14, -7.715274834628325378E-16, 6.299999999999999822 ) ) ;
#71 = CARTESIAN_POINT ( 'NONE',  ( 2.199633243471174014E-14, 3.149495543589884281E-33, 6.299999999999999822 ) ) ;
#72 = COORDINATED_UNIVERSAL_TIME_OFFSET ( 1, 0, .AHEAD. ) ;
#73 = DIRECTION ( 'NONE',  ( 4.275831445896958607E-31, 1.000000000000000000, 1.224646799147353454E-16 ) ) ;
#74 = PERSON_AND_ORGANIZATION ( #203, #113 ) ;
#75 = CYLINDRICAL_SURFACE ( 'NONE', #111, 0.7499999999999984457 ) ;
#76 = DIRECTION ( 'NONE',  ( -3.491481338843133355E-15, 1.224646799147353207E-16, -1.000000000000000000 ) ) ;
#77 = EDGE_LOOP ( 'NONE', ( #205 ) ) ;
#78 = DIRECTION ( 'NONE',  ( 0.0000000000000000000, 1.000000000000000000, 0.0000000000000000000 ) ) ;
#79 = DATE_AND_TIME ( #174, #100 ) ;
#80 = CIRCLE ( 'NONE', #195, 0.7499999999999998890 ) ;
#81 = PLANE ( 'NONE',  #65 ) ;
#82 = APPROVAL_PERSON_ORGANIZATION ( #47, #163, #34 ) ;
#83 = FACE_BOUND ( 'NONE', #21, .T. ) ;
#84 = CC_DESIGN_PERSON_AND_ORGANIZATION_ASSIGNMENT ( #138, #7, ( #164 ) ) ;
#85 = DIRECTION ( 'NONE',  ( 0.0000000000000000000, 1.000000000000000000, 0.0000000000000000000 ) ) ;
#86 = CALENDAR_DATE ( 2021, 8, 10 ) ;
#87 = DATE_AND_TIME ( #183, #127 ) ;
#88 = ADVANCED_FACE ( 'NONE', ( #120 ), #81, .T. ) ;
#89 =( NAMED_UNIT ( * ) PLANE_ANGLE_UNIT ( ) SI_UNIT ( $, .RADIAN. ) );
#90 = CALENDAR_DATE ( 2021, 8, 10 ) ;
#91 = DATE_TIME_ROLE ( 'classification_date' ) ;
#92 = AXIS2_PLACEMENT_3D ( 'NONE', #192, #221, #27 ) ;
#93 = CONICAL_SURFACE ( 'NONE', #13, 0.7499999999999972244, 0.5235987755982927094 ) ;
#94 = DATE_TIME_ROLE ( 'creation_date' ) ;
#95 = CC_DESIGN_DATE_AND_TIME_ASSIGNMENT ( #114, #94, ( #135 ) ) ;
#96 = APPROVAL_STATUS ( 'not_yet_approved' ) ;
#97 = DIRECTION ( 'NONE',  ( 0.0000000000000000000, 0.0000000000000000000, 1.000000000000000000 ) ) ;
#98 = CARTESIAN_POINT ( 'NONE',  ( 1.040461438975253740E-13, 0.7499999999999962252, 29.80000000000000071 ) ) ;
#99 = CALENDAR_DATE ( 2021, 8, 10 ) ;
#100 = LOCAL_TIME ( 7, 14, 43.00000000000000000, #119 ) ;
#101 = APPROVAL_ROLE ( '' ) ;
#102 = LOCAL_TIME ( 7, 14, 43.00000000000000000, #33 ) ;
#103 = EDGE_LOOP ( 'NONE', ( #191 ) ) ;
#104 = CARTESIAN_POINT ( 'NONE',  ( 0.0000000000000000000, 0.0000000000000000000, 0.0000000000000000000 ) ) ;
#105 = CARTESIAN_POINT ( 'NONE',  ( 8.811153282037991786E-16, -3.090536542068376413E-17, 0.2523614599915769974 ) ) ;
#106 = ADVANCED_FACE ( 'NONE', ( #39, #37 ), #223, .T. ) ;
#107 = ORIENTED_EDGE ( 'NONE', *, *, #170, .T. ) ;
#108 = DATE_AND_TIME ( #86, #102 ) ;
#109 = ADVANCED_FACE ( 'NONE', ( #157 ), #64, .F. ) ;
#110 = PRODUCT ( '55336', '55336', '', ( #137 ) ) ;
#111 = AXIS2_PLACEMENT_3D ( 'NONE', #9, #12, #73 ) ;
#112 = CARTESIAN_POINT ( 'NONE',  ( 1.047444401652940007E-13, -3.673940397442059178E-15, 30.00000000000000000 ) ) ;
#113 = ORGANIZATION ( 'UNSPECIFIED', 'UNSPECIFIED', '' ) ;
#114 = DATE_AND_TIME ( #99, #32 ) ;
#115 = AXIS2_PLACEMENT_3D ( 'NONE', #28, #76, #85 ) ;
#116 = EDGE_LOOP ( 'NONE', ( #43 ) ) ;
#117 = APPROVAL_STATUS ( 'not_yet_approved' ) ;
#118 = DIRECTION ( 'NONE',  ( -3.491481338843133355E-15, 1.224646799147353207E-16, -1.000000000000000000 ) ) ;
#119 = COORDINATED_UNIVERSAL_TIME_OFFSET ( 1, 0, .AHEAD. ) ;
#120 = FACE_OUTER_BOUND ( 'NONE', #143, .T. ) ;
#121 = UNCERTAINTY_MEASURE_WITH_UNIT (LENGTH_MEASURE( 1.000000000000000082E-05 ), #147, 'distance_accuracy_value', 'NONE');
#122 = DIRECTION ( 'NONE',  ( 3.491481338843133355E-15, -1.224646799147353207E-16, 1.000000000000000000 ) ) ;
#123 = VERTEX_POINT ( 'NONE', #193 ) ;
#124 = DIRECTION ( 'NONE',  ( 3.491481338843133355E-15, -1.224646799147353207E-16, 1.000000000000000000 ) ) ;
#125 = CONICAL_SURFACE ( 'NONE', #154, 0.4199999999999982636, 1.029744258676649871 ) ;
#126 = DIRECTION ( 'NONE',  ( 0.0000000000000000000, 1.000000000000000000, 0.0000000000000000000 ) ) ;
#127 = LOCAL_TIME ( 7, 14, 43.00000000000000000, #129 ) ;
#128 = APPROVAL_STATUS ( 'not_yet_approved' ) ;
#129 = COORDINATED_UNIVERSAL_TIME_OFFSET ( 1, 0, .AHEAD. ) ;
#130 = EDGE_CURVE ( 'NONE', #168, #168, #16, .T. ) ;
#131 = FACE_OUTER_BOUND ( 'NONE', #103, .T. ) ;
#132 = AXIS2_PLACEMENT_3D ( 'NONE', #181, #45, #126 ) ;
#133 = APPROVAL_ROLE ( '' ) ;
#134 = DIRECTION ( 'NONE',  ( 3.491481338843133355E-15, -1.224646799147353207E-16, 1.000000000000000000 ) ) ;
#135 = PRODUCT_DEFINITION ( 'UNKNOWN', '', #164, #189 ) ;
#136 = SECURITY_CLASSIFICATION_LEVEL ( 'unclassified' ) ;
#137 = MECHANICAL_CONTEXT ( 'NONE', #25, 'mechanical' ) ;
#138 = PERSON_AND_ORGANIZATION ( #203, #113 ) ;
#139 = ORIENTED_EDGE ( 'NONE', *, *, #149, .F. ) ;
#140 = ADVANCED_FACE ( 'NONE', ( #67 ), #125, .T. ) ;
#141 = CARTESIAN_POINT ( 'NONE',  ( 2.399198204865487722E-14, 0.7499999999999963363, 6.871576766497733857 ) ) ;
#142 = EDGE_LOOP ( 'NONE', ( #208 ) ) ;
#143 = EDGE_LOOP ( 'NONE', ( #11 ) ) ;
#144 = APPROVAL ( #96, 'UNSPECIFIED' ) ;
#145 = EDGE_LOOP ( 'NONE', ( #139 ) ) ;
#146 = AXIS2_PLACEMENT_3D ( 'NONE', #71, #186, #150 ) ;
#147 =( LENGTH_UNIT ( ) NAMED_UNIT ( * ) SI_UNIT ( .MILLI., .METRE. ) );
#148 = DIRECTION ( 'NONE',  ( -3.491481338843133355E-15, 1.224646799147353207E-16, -1.000000000000000000 ) ) ;
#149 = EDGE_CURVE ( 'NONE', #155, #155, #44, .T. ) ;
#150 = DIRECTION ( 'NONE',  ( -4.275831445896958607E-31, -1.000000000000000000, -1.224646799147353207E-16 ) ) ;
#151 = EDGE_CURVE ( 'NONE', #59, #59, #8, .T. ) ;
#152 = FACE_BOUND ( 'NONE', #145, .T. ) ;
#153 = ORIENTED_EDGE ( 'NONE', *, *, #151, .F. ) ;
#154 = AXIS2_PLACEMENT_3D ( 'NONE', #209, #124, #194 ) ;
#155 = VERTEX_POINT ( 'NONE', #218 ) ;
#156 = DIRECTION ( 'NONE',  ( -3.491481338843133355E-15, 1.224646799147353207E-16, -1.000000000000000000 ) ) ;
#157 = FACE_OUTER_BOUND ( 'NONE', #206, .T. ) ;
#158 = APPROVAL_DATE_TIME ( #79, #202 ) ;
#159 = CC_DESIGN_DATE_AND_TIME_ASSIGNMENT ( #87, #91, ( #66 ) ) ;
#160 = ORIENTED_EDGE ( 'NONE', *, *, #149, .T. ) ;
#161 = DIRECTION ( 'NONE',  ( 4.585547486636294691E-31, 1.000000000000000000, 1.290716872006558204E-16 ) ) ;
#162 = DIRECTION ( 'NONE',  ( 0.0000000000000000000, 1.000000000000000000, 0.0000000000000000000 ) ) ;
#163 = APPROVAL ( #128, 'UNSPECIFIED' ) ;
#164 = PRODUCT_DEFINITION_FORMATION_WITH_SPECIFIED_SOURCE ( 'ANY', '', #110, .NOT_KNOWN. ) ;
#165 = CONICAL_SURFACE ( 'NONE', #132, 0.5500000000000000444, 0.7853981633974510546 ) ;
#166 = FACE_OUTER_BOUND ( 'NONE', #188, .T. ) ;
#167 = DIRECTION ( 'NONE',  ( 1.000000000000000000, 0.0000000000000000000, 0.0000000000000000000 ) ) ;
#168 = VERTEX_POINT ( 'NONE', #4 ) ;
#169 = AXIS2_PLACEMENT_3D ( 'NONE', #70, #148, #211 ) ;
#170 = EDGE_CURVE ( 'NONE', #42, #42, #207, .T. ) ;
#171 = ORIENTED_EDGE ( 'NONE', *, *, #130, .T. ) ;
#172 = AXIS2_PLACEMENT_3D ( 'NONE', #19, #97, #167 ) ;
#173 = ORIENTED_EDGE ( 'NONE', *, *, #170, .F. ) ;
#174 = CALENDAR_DATE ( 2021, 8, 10 ) ;
#175 = DIRECTION ( 'NONE',  ( -3.491481338843133355E-15, 1.224646799147353207E-16, -1.000000000000000000 ) ) ;
#176 = CARTESIAN_POINT ( 'NONE',  ( 1.047444401652940007E-13, 0.5499999999999963807, 30.00000000000000000 ) ) ;
#177 = CC_DESIGN_APPROVAL ( #163, ( #66 ) ) ;
#178 = DIRECTION ( 'NONE',  ( 0.0000000000000000000, 1.000000000000000000, 0.0000000000000000000 ) ) ;
#179 = APPLICATION_PROTOCOL_DEFINITION ( 'international standard', 'config_control_design', 1994, #56 ) ;
#180 = EDGE_CURVE ( 'NONE', #123, #123, #20, .T. ) ;
#181 = CARTESIAN_POINT ( 'NONE',  ( 1.047444401652940007E-13, -3.673940397442059178E-15, 30.00000000000000000 ) ) ;
#182 = CLOSED_SHELL ( 'NONE', ( #210, #215, #197, #185, #109 ) ) ;
#183 = CALENDAR_DATE ( 2021, 8, 10 ) ;
#184 = CC_DESIGN_APPROVAL ( #202, ( #135 ) ) ;
#185 = ADVANCED_FACE ( 'NONE', ( #200, #83 ), #165, .T. ) ;
#186 = DIRECTION ( 'NONE',  ( 3.491481338843133355E-15, -1.224646799147353207E-16, 1.000000000000000000 ) ) ;
#187 = EDGE_LOOP ( 'NONE', ( #153 ) ) ;
#188 = EDGE_LOOP ( 'NONE', ( #160 ) ) ;
#189 = DESIGN_CONTEXT ( 'detailed design', #56, 'design' ) ;
#190 = CC_DESIGN_APPROVAL ( #144, ( #164 ) ) ;
#191 = ORIENTED_EDGE ( 'NONE', *, *, #151, .T. ) ;
#192 = CARTESIAN_POINT ( 'NONE',  ( 1.047444401652940007E-13, 4.124339402320052999E-33, 30.00000000000000000 ) ) ;
#193 = CARTESIAN_POINT ( 'NONE',  ( 2.199633243471174014E-14, 0.4199999999999984857, 6.299999999999999822 ) ) ;
#194 = DIRECTION ( 'NONE',  ( -4.585547486636294691E-31, -1.000000000000000000, -1.290716872006558204E-16 ) ) ;
#195 = AXIS2_PLACEMENT_3D ( 'NONE', #26, #156, #78 ) ;
#196 = FACE_OUTER_BOUND ( 'NONE', #142, .T. ) ;
#197 = ADVANCED_FACE ( 'NONE', ( #31, #196 ), #75, .T. ) ;
#198 = AXIS2_PLACEMENT_3D ( 'NONE', #104, #118, #23 ) ;
#199 = CC_DESIGN_SECURITY_CLASSIFICATION ( #66, ( #164 ) ) ;
#200 = FACE_OUTER_BOUND ( 'NONE', #77, .T. ) ;
#201 =( NAMED_UNIT ( * ) SI_UNIT ( $, .STERADIAN. ) SOLID_ANGLE_UNIT ( ) );
#202 = APPROVAL ( #117, 'UNSPECIFIED' ) ;
#203 = PERSON ( 'UNSPECIFIED', 'UNSPECIFIED', 'UNSPECIFIED', ('UNSPECIFIED'), ('UNSPECIFIED'), ('UNSPECIFIED') ) ;
#204 = DIRECTION ( 'NONE',  ( 0.0000000000000000000, -1.000000000000000000, 0.0000000000000000000 ) ) ;
#205 = ORIENTED_EDGE ( 'NONE', *, *, #55, .F. ) ;
#206 = EDGE_LOOP ( 'NONE', ( #173 ) ) ;
#207 = CIRCLE ( 'NONE', #29, 0.5500000000000000444 ) ;
#208 = ORIENTED_EDGE ( 'NONE', *, *, #55, .T. ) ;
#209 = CARTESIAN_POINT ( 'NONE',  ( 8.811153282037991786E-16, -3.090536542068376413E-17, 0.2523614599915769974 ) ) ;
#210 = ADVANCED_FACE ( 'NONE', ( #166 ), #50, .F. ) ;
#211 = DIRECTION ( 'NONE',  ( 0.0000000000000000000, 1.000000000000000000, 0.0000000000000000000 ) ) ;
#212 = COORDINATED_UNIVERSAL_TIME_OFFSET ( 1, 0, .AHEAD. ) ;
#213 = DIRECTION ( 'NONE',  ( -3.491481338843133355E-15, 1.224646799147353207E-16, -1.000000000000000000 ) ) ;
#214 = MANIFOLD_SOLID_BREP ( 'Corps-Déplacer/Copier1[2]', #2 ) ;
#215 = ADVANCED_FACE ( 'NONE', ( #152, #131 ), #93, .T. ) ;
#216 = APPROVAL_DATE_TIME ( #108, #144 ) ;
#217 = AXIS2_PLACEMENT_3D ( 'NONE', #30, #1, #162 ) ;
#218 = CARTESIAN_POINT ( 'NONE',  ( 2.199633243471174014E-14, 0.4199999999999984857, 6.299999999999999822 ) ) ;
#219 = CARTESIAN_POINT ( 'NONE',  ( 2.199633243471174014E-14, 3.149495543589884281E-33, 6.299999999999999822 ) ) ;
#220 = DATE_AND_TIME ( #90, #48 ) ;
#221 = DIRECTION ( 'NONE',  ( -3.491481338843133355E-15, 1.224646799147353207E-16, -1.000000000000000000 ) ) ;
#222 = PERSON_AND_ORGANIZATION ( #203, #113 ) ;
#223 = CYLINDRICAL_SURFACE ( 'NONE', #198, 0.4199999999999987632 ) ;
ENDSEC;
END-ISO-10303-21;
