ISO-10303-21;
HEADER;
FILE_DESCRIPTION (( 'STEP AP203' ),
    '1' );
FILE_NAME ('55335.step',
    '2021-10-08T05:14:42',
    ( '' ),
    ( '' ),
    'SwSTEP 2.0',
    'SolidWorks 2019',
    '' );
FILE_SCHEMA (( 'CONFIG_CONTROL_DESIGN' ));
ENDSEC;

DATA;
#1 = DIRECTION ( 'NONE',  ( -3.491481338843133355E-15, 1.224646799147353207E-16, -1.000000000000000000 ) ) ;
#2 = CC_DESIGN_PERSON_AND_ORGANIZATION_ASSIGNMENT ( #92, #70, ( #11 ) ) ;
#3 = ADVANCED_FACE ( 'NONE', ( #165 ), #134, .F. ) ;
#4 = APPROVAL_ROLE ( '' ) ;
#5 =( LENGTH_UNIT ( ) NAMED_UNIT ( * ) SI_UNIT ( .MILLI., .METRE. ) );
#6 = ORIENTED_EDGE ( 'NONE', *, *, #97, .F. ) ;
#7 = PERSON_AND_ORGANIZATION ( #136, #98 ) ;
#8 = LOCAL_TIME ( 7, 14, 42.00000000000000000, #119 ) ;
#9 = CARTESIAN_POINT ( 'NONE',  ( 2.402221916401765542E-14, -8.425860244574019221E-16, 6.880237020535579617 ) ) ;
#10 = ORIENTED_EDGE ( 'NONE', *, *, #74, .T. ) ;
#11 = SECURITY_CLASSIFICATION ( '', '', #58 ) ;
#12 = DIRECTION ( 'NONE',  ( 3.491481338843133355E-15, -1.224646799147353207E-16, 1.000000000000000000 ) ) ;
#13 = FACE_BOUND ( 'NONE', #57, .T. ) ;
#14 = CONICAL_SURFACE ( 'NONE', #215, 0.7499999999999972244, 0.5235987755982930425 ) ;
#15 = DIRECTION ( 'NONE',  ( 0.0000000000000000000, -1.000000000000000000, 0.0000000000000000000 ) ) ;
#16 = CIRCLE ( 'NONE', #147, 0.4149999999999985922 ) ;
#17 = CIRCLE ( 'NONE', #205, 0.4149999999999985922 ) ;
#18 = PERSON_AND_ORGANIZATION_ROLE ( 'design_supplier' ) ;
#19 = APPLICATION_CONTEXT ( 'configuration controlled 3d designs of mechanical parts and assemblies' ) ;
#20 = PRODUCT_DEFINITION_FORMATION_WITH_SPECIFIED_SOURCE ( 'ANY', '', #211, .NOT_KNOWN. ) ;
#21 = VERTEX_POINT ( 'NONE', #200 ) ;
#22 = DIRECTION ( 'NONE',  ( 0.0000000000000000000, 1.000000000000000000, 0.0000000000000000000 ) ) ;
#23 = EDGE_CURVE ( 'NONE', #141, #141, #193, .T. ) ;
#24 = EDGE_LOOP ( 'NONE', ( #203 ) ) ;
#25 = DIRECTION ( 'NONE',  ( 4.275831445896958607E-31, 1.000000000000000000, 1.224646799147353207E-16 ) ) ;
#26 = DIRECTION ( 'NONE',  ( -3.491481338843133355E-15, 1.224646799147353207E-16, -1.000000000000000000 ) ) ;
#27 = PERSON_AND_ORGANIZATION_ROLE ( 'creator' ) ;
#28 = CARTESIAN_POINT ( 'NONE',  ( 2.402221916401765542E-14, -8.425860244574019221E-16, 6.880237020535579617 ) ) ;
#29 = CC_DESIGN_APPROVAL ( #56, ( #11 ) ) ;
#30 = CARTESIAN_POINT ( 'NONE',  ( 0.0000000000000000000, 0.0000000000000000000, 0.0000000000000000000 ) ) ;
#31 = DIRECTION ( 'NONE',  ( -3.491481338843133355E-15, 1.224646799147353207E-16, -1.000000000000000000 ) ) ;
#32 = APPROVAL ( #65, 'UNSPECIFIED' ) ;
#33 = PERSON_AND_ORGANIZATION_ROLE ( 'creator' ) ;
#34 = AXIS2_PLACEMENT_3D ( 'NONE', #30, #1, #144 ) ;
#35 = CARTESIAN_POINT ( 'NONE',  ( 8.706258600108965996E-16, -3.053744440377085755E-17, 0.2493571568964391694 ) ) ;
#36 = DATE_AND_TIME ( #172, #123 ) ;
#37 = EDGE_LOOP ( 'NONE', ( #6 ) ) ;
#38 = EDGE_LOOP ( 'NONE', ( #101 ) ) ;
#39 = ADVANCED_FACE ( 'NONE', ( #115, #61 ), #139, .T. ) ;
#40 = CC_DESIGN_SECURITY_CLASSIFICATION ( #11, ( #20 ) ) ;
#41 = DIRECTION ( 'NONE',  ( -4.275831445896958607E-31, -1.000000000000000000, -1.224646799147353207E-16 ) ) ;
#42 = APPROVAL_DATE_TIME ( #36, #167 ) ;
#43 = CARTESIAN_POINT ( 'NONE',  ( 0.0000000000000000000, 0.0000000000000000000, 0.0000000000000000000 ) ) ;
#44 = EDGE_LOOP ( 'NONE', ( #164 ) ) ;
#45 = CIRCLE ( 'NONE', #219, 0.5500000000000000444 ) ;
#46 = DIRECTION ( 'NONE',  ( -3.491481338843133355E-15, 1.224646799147353207E-16, -1.000000000000000000 ) ) ;
#47 = CARTESIAN_POINT ( 'NONE',  ( 2.402221916401765542E-14, 0.7499999999999963363, 6.880237020535579617 ) ) ;
#48 = ADVANCED_BREP_SHAPE_REPRESENTATION ( '55335', ( #131, #132, #76 ), #124 ) ;
#49 = DIRECTION ( 'NONE',  ( 0.0000000000000000000, 1.000000000000000000, 0.0000000000000000000 ) ) ;
#50 = ADVANCED_FACE ( 'NONE', ( #117 ), #188, .T. ) ;
#51 = APPROVAL_PERSON_ORGANIZATION ( #7, #56, #4 ) ;
#52 = FACE_BOUND ( 'NONE', #24, .T. ) ;
#53 = EDGE_CURVE ( 'NONE', #195, #195, #170, .T. ) ;
#54 = DATE_TIME_ROLE ( 'classification_date' ) ;
#55 = PERSON_AND_ORGANIZATION ( #136, #98 ) ;
#56 = APPROVAL ( #128, 'UNSPECIFIED' ) ;
#57 = EDGE_LOOP ( 'NONE', ( #83 ) ) ;
#58 = SECURITY_CLASSIFICATION_LEVEL ( 'unclassified' ) ;
#59 = ORIENTED_EDGE ( 'NONE', *, *, #163, .T. ) ;
#60 = CALENDAR_DATE ( 2021, 8, 10 ) ;
#61 = FACE_OUTER_BOUND ( 'NONE', #78, .T. ) ;
#62 = AXIS2_PLACEMENT_3D ( 'NONE', #146, #206, #41 ) ;
#63 = APPLICATION_PROTOCOL_DEFINITION ( 'international standard', 'config_control_design', 1994, #154 ) ;
#64 = CARTESIAN_POINT ( 'NONE',  ( 2.199633243471174014E-14, -7.715274834628325378E-16, 6.299999999999999822 ) ) ;
#65 = APPROVAL_STATUS ( 'not_yet_approved' ) ;
#66 = CARTESIAN_POINT ( 'NONE',  ( 1.047444401652940007E-13, -3.673940397442059178E-15, 30.00000000000000000 ) ) ;
#67 = ADVANCED_FACE ( 'NONE', ( #220 ), #114, .F. ) ;
#68 = FACE_OUTER_BOUND ( 'NONE', #168, .T. ) ;
#69 = VERTEX_POINT ( 'NONE', #179 ) ;
#70 = PERSON_AND_ORGANIZATION_ROLE ( 'classification_officer' ) ;
#71 =( NAMED_UNIT ( * ) PLANE_ANGLE_UNIT ( ) SI_UNIT ( $, .RADIAN. ) );
#72 = CLOSED_SHELL ( 'NONE', ( #3, #212, #204, #152, #67 ) ) ;
#73 = COORDINATED_UNIVERSAL_TIME_OFFSET ( 1, 0, .AHEAD. ) ;
#74 = EDGE_CURVE ( 'NONE', #122, #122, #16, .T. ) ;
#75 = ORIENTED_EDGE ( 'NONE', *, *, #53, .T. ) ;
#76 = AXIS2_PLACEMENT_3D ( 'NONE', #43, #116, #186 ) ;
#77 = DIRECTION ( 'NONE',  ( 4.275831445896958607E-31, 1.000000000000000000, 1.224646799147353207E-16 ) ) ;
#78 = EDGE_LOOP ( 'NONE', ( #10 ) ) ;
#79 = PERSON_AND_ORGANIZATION ( #136, #98 ) ;
#80 = DIRECTION ( 'NONE',  ( -3.491481338843133355E-15, 1.224646799147353207E-16, -1.000000000000000000 ) ) ;
#81 = UNCERTAINTY_MEASURE_WITH_UNIT (LENGTH_MEASURE( 1.000000000000000082E-05 ), #5, 'distance_accuracy_value', 'NONE');
#82 = AXIS2_PLACEMENT_3D ( 'NONE', #28, #103, #99 ) ;
#83 = ORIENTED_EDGE ( 'NONE', *, *, #97, .T. ) ;
#84 = LOCAL_TIME ( 7, 14, 42.00000000000000000, #73 ) ;
#85 = CARTESIAN_POINT ( 'NONE',  ( 1.047444401652940007E-13, -3.673940397442059178E-15, 30.00000000000000000 ) ) ;
#86 = PERSON_AND_ORGANIZATION ( #136, #98 ) ;
#87 = APPROVAL_PERSON_ORGANIZATION ( #55, #167, #166 ) ;
#88 = APPROVAL_DATE_TIME ( #104, #56 ) ;
#89 = CARTESIAN_POINT ( 'NONE',  ( 1.040461438975253740E-13, 0.7499999999999962252, 29.80000000000000071 ) ) ;
#90 = DATE_AND_TIME ( #175, #8 ) ;
#91 = AXIS2_PLACEMENT_3D ( 'NONE', #35, #102, #207 ) ;
#92 = PERSON_AND_ORGANIZATION ( #136, #98 ) ;
#93 = CC_DESIGN_PERSON_AND_ORGANIZATION_ASSIGNMENT ( #86, #33, ( #20 ) ) ;
#94 = CALENDAR_DATE ( 2021, 8, 10 ) ;
#95 = PERSON_AND_ORGANIZATION_ROLE ( 'design_owner' ) ;
#96 = PERSON_AND_ORGANIZATION ( #136, #98 ) ;
#97 = EDGE_CURVE ( 'NONE', #21, #21, #45, .T. ) ;
#98 = ORGANIZATION ( 'UNSPECIFIED', 'UNSPECIFIED', '' ) ;
#99 = DIRECTION ( 'NONE',  ( 0.0000000000000000000, 1.000000000000000000, 0.0000000000000000000 ) ) ;
#100 = COORDINATED_UNIVERSAL_TIME_OFFSET ( 1, 0, .AHEAD. ) ;
#101 = ORIENTED_EDGE ( 'NONE', *, *, #133, .T. ) ;
#102 = DIRECTION ( 'NONE',  ( 3.491481338843133355E-15, -1.224646799147353207E-16, 1.000000000000000000 ) ) ;
#103 = DIRECTION ( 'NONE',  ( -3.491481338843133355E-15, 1.224646799147353207E-16, -1.000000000000000000 ) ) ;
#104 = DATE_AND_TIME ( #130, #84 ) ;
#105 = DIRECTION ( 'NONE',  ( 4.640795046716250798E-31, 1.000000000000000000, 1.306267677693384417E-16 ) ) ;
#106 = CC_DESIGN_PERSON_AND_ORGANIZATION_ASSIGNMENT ( #199, #95, ( #211 ) ) ;
#107 = FACE_OUTER_BOUND ( 'NONE', #185, .T. ) ;
#108 = COORDINATED_UNIVERSAL_TIME_OFFSET ( 1, 0, .AHEAD. ) ;
#109 = PRODUCT_RELATED_PRODUCT_CATEGORY ( 'detail', '', ( #211 ) ) ;
#110 = CLOSED_SHELL ( 'NONE', ( #50, #39, #145 ) ) ;
#111 = DIRECTION ( 'NONE',  ( -3.491481338843133355E-15, 1.224646799147353207E-16, -1.000000000000000000 ) ) ;
#112 = COORDINATED_UNIVERSAL_TIME_OFFSET ( 1, 0, .AHEAD. ) ;
#113 = DATE_AND_TIME ( #60, #208 ) ;
#114 = PLANE ( 'NONE',  #118 ) ;
#115 = FACE_OUTER_BOUND ( 'NONE', #44, .T. ) ;
#116 = DIRECTION ( 'NONE',  ( 0.0000000000000000000, 0.0000000000000000000, 1.000000000000000000 ) ) ;
#117 = FACE_OUTER_BOUND ( 'NONE', #38, .T. ) ;
#118 = AXIS2_PLACEMENT_3D ( 'NONE', #184, #111, #25 ) ;
#119 = COORDINATED_UNIVERSAL_TIME_OFFSET ( 1, 0, .AHEAD. ) ;
#120 = FACE_OUTER_BOUND ( 'NONE', #169, .T. ) ;
#121 = PLANE ( 'NONE',  #125 ) ;
#122 = VERTEX_POINT ( 'NONE', #160 ) ;
#123 = LOCAL_TIME ( 7, 14, 42.00000000000000000, #100 ) ;
#124 =( GEOMETRIC_REPRESENTATION_CONTEXT ( 3 ) GLOBAL_UNCERTAINTY_ASSIGNED_CONTEXT ( ( #81 ) ) GLOBAL_UNIT_ASSIGNED_CONTEXT ( ( #5, #71, #127 ) ) REPRESENTATION_CONTEXT ( 'NONE', 'WORKASPACE' ) );
#125 = AXIS2_PLACEMENT_3D ( 'NONE', #174, #194, #222 ) ;
#126 = APPROVAL_DATE_TIME ( #90, #32 ) ;
#127 =( NAMED_UNIT ( * ) SI_UNIT ( $, .STERADIAN. ) SOLID_ANGLE_UNIT ( ) );
#128 = APPROVAL_STATUS ( 'not_yet_approved' ) ;
#129 = APPROVAL_STATUS ( 'not_yet_approved' ) ;
#130 = CALENDAR_DATE ( 2021, 8, 10 ) ;
#131 = MANIFOLD_SOLID_BREP ( 'Corps-Déplacer/Copier1[1]', #72 ) ;
#132 = MANIFOLD_SOLID_BREP ( 'Corps-Déplacer/Copier1[2]', #110 ) ;
#133 = EDGE_CURVE ( 'NONE', #201, #201, #155, .T. ) ;
#134 = PLANE ( 'NONE',  #62 ) ;
#135 = DIRECTION ( 'NONE',  ( 0.0000000000000000000, 1.000000000000000000, 0.0000000000000000000 ) ) ;
#136 = PERSON ( 'UNSPECIFIED', 'UNSPECIFIED', 'UNSPECIFIED', ('UNSPECIFIED'), ('UNSPECIFIED'), ('UNSPECIFIED') ) ;
#137 = AXIS2_PLACEMENT_3D ( 'NONE', #85, #31, #142 ) ;
#138 = EDGE_LOOP ( 'NONE', ( #59 ) ) ;
#139 = CYLINDRICAL_SURFACE ( 'NONE', #192, 0.4149999999999984257 ) ;
#140 = CARTESIAN_POINT ( 'NONE',  ( 8.706258600108965996E-16, -3.053744440377085755E-17, 0.2493571568964391694 ) ) ;
#141 = VERTEX_POINT ( 'NONE', #47 ) ;
#142 = DIRECTION ( 'NONE',  ( 0.0000000000000000000, 1.000000000000000000, 0.0000000000000000000 ) ) ;
#143 = FACE_OUTER_BOUND ( 'NONE', #187, .T. ) ;
#144 = DIRECTION ( 'NONE',  ( 4.275831445896958607E-31, 1.000000000000000000, 1.224646799147353454E-16 ) ) ;
#145 = ADVANCED_FACE ( 'NONE', ( #143 ), #121, .T. ) ;
#146 = CARTESIAN_POINT ( 'NONE',  ( 2.199633243471174014E-14, 3.112001549023332778E-33, 6.299999999999999822 ) ) ;
#147 = AXIS2_PLACEMENT_3D ( 'NONE', #64, #181, #22 ) ;
#148 = APPROVAL_PERSON_ORGANIZATION ( #218, #32, #196 ) ;
#149 = FACE_OUTER_BOUND ( 'NONE', #217, .T. ) ;
#150 = ORIENTED_EDGE ( 'NONE', *, *, #53, .F. ) ;
#151 = DATE_TIME_ROLE ( 'creation_date' ) ;
#152 = ADVANCED_FACE ( 'NONE', ( #68, #13 ), #178, .T. ) ;
#153 = ORIENTED_EDGE ( 'NONE', *, *, #23, .T. ) ;
#154 = APPLICATION_CONTEXT ( 'configuration controlled 3d designs of mechanical parts and assemblies' ) ;
#155 = CIRCLE ( 'NONE', #161, 0.4149999999999982592 ) ;
#156 = ORIENTED_EDGE ( 'NONE', *, *, #23, .F. ) ;
#157 = DIRECTION ( 'NONE',  ( 0.0000000000000000000, 1.000000000000000000, 0.0000000000000000000 ) ) ;
#158 = CC_DESIGN_PERSON_AND_ORGANIZATION_ASSIGNMENT ( #96, #18, ( #20 ) ) ;
#159 = LOCAL_TIME ( 7, 14, 42.00000000000000000, #108 ) ;
#160 = CARTESIAN_POINT ( 'NONE',  ( 2.199633243471174014E-14, 0.4149999999999978151, 6.299999999999999822 ) ) ;
#161 = AXIS2_PLACEMENT_3D ( 'NONE', #140, #46, #105 ) ;
#162 = APPLICATION_PROTOCOL_DEFINITION ( 'international standard', 'config_control_design', 1994, #19 ) ;
#163 = EDGE_CURVE ( 'NONE', #69, #69, #17, .T. ) ;
#164 = ORIENTED_EDGE ( 'NONE', *, *, #133, .F. ) ;
#165 = FACE_OUTER_BOUND ( 'NONE', #138, .T. ) ;
#166 = APPROVAL_ROLE ( '' ) ;
#167 = APPROVAL ( #129, 'UNSPECIFIED' ) ;
#168 = EDGE_LOOP ( 'NONE', ( #150 ) ) ;
#169 = EDGE_LOOP ( 'NONE', ( #156 ) ) ;
#170 = CIRCLE ( 'NONE', #214, 0.7499999999999998890 ) ;
#171 = CC_DESIGN_APPROVAL ( #167, ( #180 ) ) ;
#172 = CALENDAR_DATE ( 2021, 8, 10 ) ;
#173 = CC_DESIGN_DATE_AND_TIME_ASSIGNMENT ( #113, #151, ( #180 ) ) ;
#174 = CARTESIAN_POINT ( 'NONE',  ( 2.199633243471174014E-14, 3.112001549023332778E-33, 6.299999999999999822 ) ) ;
#175 = CALENDAR_DATE ( 2021, 8, 10 ) ;
#176 = SHAPE_DEFINITION_REPRESENTATION ( #191, #48 ) ;
#177 = CARTESIAN_POINT ( 'NONE',  ( 8.706258600108967968E-16, 0.4149999999999982037, 0.2493571568964392249 ) ) ;
#178 = CONICAL_SURFACE ( 'NONE', #137, 0.5500000000000000444, 0.7853981633974510546 ) ;
#179 = CARTESIAN_POINT ( 'NONE',  ( 2.199633243471174014E-14, 0.4149999999999978151, 6.299999999999999822 ) ) ;
#180 = PRODUCT_DEFINITION ( 'UNKNOWN', '', #20, #183 ) ;
#181 = DIRECTION ( 'NONE',  ( -3.491481338843133355E-15, 1.224646799147353207E-16, -1.000000000000000000 ) ) ;
#182 = ORIENTED_EDGE ( 'NONE', *, *, #74, .F. ) ;
#183 = DESIGN_CONTEXT ( 'detailed design', #19, 'design' ) ;
#184 = CARTESIAN_POINT ( 'NONE',  ( 1.047444401652940007E-13, 4.124339402320052999E-33, 30.00000000000000000 ) ) ;
#185 = EDGE_LOOP ( 'NONE', ( #75 ) ) ;
#186 = DIRECTION ( 'NONE',  ( 1.000000000000000000, 0.0000000000000000000, 0.0000000000000000000 ) ) ;
#187 = EDGE_LOOP ( 'NONE', ( #182 ) ) ;
#188 = CONICAL_SURFACE ( 'NONE', #91, 0.4149999999999982592, 1.029744258676649871 ) ;
#189 = DIRECTION ( 'NONE',  ( -3.491481338843133355E-15, 1.224646799147353207E-16, -1.000000000000000000 ) ) ;
#190 = CYLINDRICAL_SURFACE ( 'NONE', #34, 0.7499999999999984457 ) ;
#191 = PRODUCT_DEFINITION_SHAPE ( 'NONE', 'NONE',  #180 ) ;
#192 = AXIS2_PLACEMENT_3D ( 'NONE', #202, #26, #77 ) ;
#193 = CIRCLE ( 'NONE', #82, 0.7499999999999972244 ) ;
#194 = DIRECTION ( 'NONE',  ( 3.491481338843133355E-15, -1.224646799147353207E-16, 1.000000000000000000 ) ) ;
#195 = VERTEX_POINT ( 'NONE', #89 ) ;
#196 = APPROVAL_ROLE ( '' ) ;
#197 = CC_DESIGN_PERSON_AND_ORGANIZATION_ASSIGNMENT ( #79, #27, ( #180 ) ) ;
#198 = CC_DESIGN_APPROVAL ( #32, ( #20 ) ) ;
#199 = PERSON_AND_ORGANIZATION ( #136, #98 ) ;
#200 = CARTESIAN_POINT ( 'NONE',  ( 1.047444401652940007E-13, 0.5499999999999963807, 30.00000000000000000 ) ) ;
#201 = VERTEX_POINT ( 'NONE', #177 ) ;
#202 = CARTESIAN_POINT ( 'NONE',  ( 0.0000000000000000000, 0.0000000000000000000, 0.0000000000000000000 ) ) ;
#203 = ORIENTED_EDGE ( 'NONE', *, *, #163, .F. ) ;
#204 = ADVANCED_FACE ( 'NONE', ( #120, #107 ), #190, .T. ) ;
#205 = AXIS2_PLACEMENT_3D ( 'NONE', #210, #209, #49 ) ;
#206 = DIRECTION ( 'NONE',  ( 3.491481338843133355E-15, -1.224646799147353207E-16, 1.000000000000000000 ) ) ;
#207 = DIRECTION ( 'NONE',  ( -4.640795046716250798E-31, -1.000000000000000000, -1.306267677693384417E-16 ) ) ;
#208 = LOCAL_TIME ( 7, 14, 42.00000000000000000, #112 ) ;
#209 = DIRECTION ( 'NONE',  ( -3.491481338843133355E-15, 1.224646799147353207E-16, -1.000000000000000000 ) ) ;
#210 = CARTESIAN_POINT ( 'NONE',  ( 2.199633243471174014E-14, -7.715274834628325378E-16, 6.299999999999999822 ) ) ;
#211 = PRODUCT ( '55335', '55335', '', ( #223 ) ) ;
#212 = ADVANCED_FACE ( 'NONE', ( #52, #149 ), #14, .T. ) ;
#213 = DATE_AND_TIME ( #94, #159 ) ;
#214 = AXIS2_PLACEMENT_3D ( 'NONE', #216, #80, #135 ) ;
#215 = AXIS2_PLACEMENT_3D ( 'NONE', #9, #12, #15 ) ;
#216 = CARTESIAN_POINT ( 'NONE',  ( 1.040461438975253740E-13, -3.649447461459112464E-15, 29.80000000000000071 ) ) ;
#217 = EDGE_LOOP ( 'NONE', ( #153 ) ) ;
#218 = PERSON_AND_ORGANIZATION ( #136, #98 ) ;
#219 = AXIS2_PLACEMENT_3D ( 'NONE', #66, #189, #157 ) ;
#220 = FACE_OUTER_BOUND ( 'NONE', #37, .T. ) ;
#221 = CC_DESIGN_DATE_AND_TIME_ASSIGNMENT ( #213, #54, ( #11 ) ) ;
#222 = DIRECTION ( 'NONE',  ( -4.275831445896958607E-31, -1.000000000000000000, -1.224646799147353207E-16 ) ) ;
#223 = MECHANICAL_CONTEXT ( 'NONE', #154, 'mechanical' ) ;
ENDSEC;
END-ISO-10303-21;
