ISO-10303-21;
HEADER;
FILE_DESCRIPTION (( 'STEP AP203' ),
    '1' );
FILE_NAME ('55334.step',
    '2021-10-08T05:14:42',
    ( '' ),
    ( '' ),
    'SwSTEP 2.0',
    'SolidWorks 2019',
    '' );
FILE_SCHEMA (( 'CONFIG_CONTROL_DESIGN' ));
ENDSEC;

DATA;
#1 = APPROVAL_DATE_TIME ( #188, #173 ) ;
#2 = APPROVAL_PERSON_ORGANIZATION ( #126, #173, #157 ) ;
#3 = APPROVAL ( #206, 'UNSPECIFIED' ) ;
#4 = CIRCLE ( 'NONE', #130, 0.5500000000000000444 ) ;
#5 = CIRCLE ( 'NONE', #55, 0.4099999999999988098 ) ;
#6 = ORIENTED_EDGE ( 'NONE', *, *, #103, .T. ) ;
#7 = DIRECTION ( 'NONE',  ( -4.275831445896958607E-31, -1.000000000000000000, -1.224646799147353207E-16 ) ) ;
#8 = CALENDAR_DATE ( 2021, 8, 10 ) ;
#9 = DIRECTION ( 'NONE',  ( -3.491481338843133355E-15, 1.224646799147353207E-16, -1.000000000000000000 ) ) ;
#10 = CC_DESIGN_PERSON_AND_ORGANIZATION_ASSIGNMENT ( #44, #207, ( #114 ) ) ;
#11 = DIRECTION ( 'NONE',  ( 4.275831445896958607E-31, 1.000000000000000000, 1.224646799147353454E-16 ) ) ;
#12 = VERTEX_POINT ( 'NONE', #26 ) ;
#13 = CARTESIAN_POINT ( 'NONE',  ( 1.047444401652940007E-13, -3.673940397442059178E-15, 30.00000000000000000 ) ) ;
#14 = PERSON_AND_ORGANIZATION ( #82, #195 ) ;
#15 = VERTEX_POINT ( 'NONE', #67 ) ;
#16 = AXIS2_PLACEMENT_3D ( 'NONE', #63, #115, #57 ) ;
#17 = CLOSED_SHELL ( 'NONE', ( #190, #223, #69, #73, #172 ) ) ;
#18 = AXIS2_PLACEMENT_3D ( 'NONE', #140, #155, #84 ) ;
#19 = EDGE_LOOP ( 'NONE', ( #201 ) ) ;
#20 = EDGE_LOOP ( 'NONE', ( #158 ) ) ;
#21 = CONICAL_SURFACE ( 'NONE', #204, 0.5500000000000000444, 0.7853981633974510546 ) ;
#22 = PLANE ( 'NONE',  #156 ) ;
#23 = FACE_OUTER_BOUND ( 'NONE', #176, .T. ) ;
#24 = PERSON_AND_ORGANIZATION_ROLE ( 'creator' ) ;
#25 = ORIENTED_EDGE ( 'NONE', *, *, #168, .T. ) ;
#26 = CARTESIAN_POINT ( 'NONE',  ( 8.601363918179945137E-16, 0.4099999999999981992, 0.2463528538013013969 ) ) ;
#27 = SECURITY_CLASSIFICATION ( '', '', #220 ) ;
#28 = PLANE ( 'NONE',  #221 ) ;
#29 = VERTEX_POINT ( 'NONE', #87 ) ;
#30 = UNCERTAINTY_MEASURE_WITH_UNIT (LENGTH_MEASURE( 1.000000000000000082E-05 ), #50, 'distance_accuracy_value', 'NONE');
#31 = DIRECTION ( 'NONE',  ( 3.491481338843133355E-15, -1.224646799147353207E-16, 1.000000000000000000 ) ) ;
#32 = EDGE_CURVE ( 'NONE', #15, #15, #125, .T. ) ;
#33 = VERTEX_POINT ( 'NONE', #96 ) ;
#34 = VERTEX_POINT ( 'NONE', #80 ) ;
#35 = CC_DESIGN_APPROVAL ( #111, ( #153 ) ) ;
#36 = CC_DESIGN_PERSON_AND_ORGANIZATION_ASSIGNMENT ( #14, #24, ( #191 ) ) ;
#37 = APPROVAL_STATUS ( 'not_yet_approved' ) ;
#38 = CC_DESIGN_APPROVAL ( #173, ( #27 ) ) ;
#39 = EDGE_LOOP ( 'NONE', ( #112 ) ) ;
#40 = CARTESIAN_POINT ( 'NONE',  ( 2.199633243471174014E-14, 3.074507554456787432E-33, 6.299999999999999822 ) ) ;
#41 = LOCAL_TIME ( 7, 14, 42.00000000000000000, #46 ) ;
#42 = FACE_OUTER_BOUND ( 'NONE', #74, .T. ) ;
#43 = CYLINDRICAL_SURFACE ( 'NONE', #65, 0.7499999999999984457 ) ;
#44 = PERSON_AND_ORGANIZATION ( #82, #195 ) ;
#45 = CARTESIAN_POINT ( 'NONE',  ( 0.0000000000000000000, 0.0000000000000000000, 0.0000000000000000000 ) ) ;
#46 = COORDINATED_UNIVERSAL_TIME_OFFSET ( 1, 0, .AHEAD. ) ;
#47 = APPROVAL_PERSON_ORGANIZATION ( #122, #111, #62 ) ;
#48 = EDGE_CURVE ( 'NONE', #12, #12, #64, .T. ) ;
#49 = CARTESIAN_POINT ( 'NONE',  ( 1.047444401652940007E-13, 4.124339402320052999E-33, 30.00000000000000000 ) ) ;
#50 =( LENGTH_UNIT ( ) NAMED_UNIT ( * ) SI_UNIT ( .MILLI., .METRE. ) );
#51 = MANIFOLD_SOLID_BREP ( 'Corps-Déplacer/Copier1[2]', #120 ) ;
#52 = SHAPE_DEFINITION_REPRESENTATION ( #143, #137 ) ;
#53 = CONICAL_SURFACE ( 'NONE', #18, 0.7499999999999972244, 0.5235987755982929315 ) ;
#54 = EDGE_LOOP ( 'NONE', ( #25 ) ) ;
#55 = AXIS2_PLACEMENT_3D ( 'NONE', #94, #129, #177 ) ;
#56 = CARTESIAN_POINT ( 'NONE',  ( 2.199633243471174014E-14, -7.715274834628325378E-16, 6.299999999999999822 ) ) ;
#57 = DIRECTION ( 'NONE',  ( 0.0000000000000000000, 1.000000000000000000, 0.0000000000000000000 ) ) ;
#58 = CONICAL_SURFACE ( 'NONE', #210, 0.4099999999999982547, 1.029744258676649871 ) ;
#59 = PERSON_AND_ORGANIZATION ( #82, #195 ) ;
#60 = APPLICATION_PROTOCOL_DEFINITION ( 'international standard', 'config_control_design', 1994, #85 ) ;
#61 = DIRECTION ( 'NONE',  ( 0.0000000000000000000, 1.000000000000000000, 0.0000000000000000000 ) ) ;
#62 = APPROVAL_ROLE ( '' ) ;
#63 = CARTESIAN_POINT ( 'NONE',  ( 1.040461438975253740E-13, -3.649447461459112464E-15, 29.80000000000000071 ) ) ;
#64 = CIRCLE ( 'NONE', #203, 0.4099999999999982547 ) ;
#65 = AXIS2_PLACEMENT_3D ( 'NONE', #219, #9, #11 ) ;
#66 = PERSON_AND_ORGANIZATION ( #82, #195 ) ;
#67 = CARTESIAN_POINT ( 'NONE',  ( 2.199633243471174014E-14, 0.4099999999999980327, 6.299999999999999822 ) ) ;
#68 = CARTESIAN_POINT ( 'NONE',  ( 0.0000000000000000000, 0.0000000000000000000, 0.0000000000000000000 ) ) ;
#69 = ADVANCED_FACE ( 'NONE', ( #165, #42 ), #43, .T. ) ;
#70 = EDGE_CURVE ( 'NONE', #33, #33, #4, .T. ) ;
#71 = AXIS2_PLACEMENT_3D ( 'NONE', #45, #205, #170 ) ;
#72 = ORIENTED_EDGE ( 'NONE', *, *, #70, .F. ) ;
#73 = ADVANCED_FACE ( 'NONE', ( #117, #102 ), #21, .T. ) ;
#74 = EDGE_LOOP ( 'NONE', ( #6 ) ) ;
#75 = FACE_OUTER_BOUND ( 'NONE', #20, .T. ) ;
#76 = FACE_OUTER_BOUND ( 'NONE', #127, .T. ) ;
#77 = DATE_AND_TIME ( #8, #104 ) ;
#78 = DIRECTION ( 'NONE',  ( -4.697390108261570962E-31, -1.000000000000000000, -1.322197771323791553E-16 ) ) ;
#79 = EDGE_LOOP ( 'NONE', ( #92 ) ) ;
#80 = CARTESIAN_POINT ( 'NONE',  ( 2.199633243471174014E-14, 0.4099999999999980327, 6.299999999999999822 ) ) ;
#81 = DIRECTION ( 'NONE',  ( -3.491481338843133355E-15, 1.224646799147353207E-16, -1.000000000000000000 ) ) ;
#82 = PERSON ( 'UNSPECIFIED', 'UNSPECIFIED', 'UNSPECIFIED', ('UNSPECIFIED'), ('UNSPECIFIED'), ('UNSPECIFIED') ) ;
#83 = PERSON_AND_ORGANIZATION ( #82, #195 ) ;
#84 = DIRECTION ( 'NONE',  ( 0.0000000000000000000, -1.000000000000000000, 0.0000000000000000000 ) ) ;
#85 = APPLICATION_CONTEXT ( 'configuration controlled 3d designs of mechanical parts and assemblies' ) ;
#86 = APPROVAL_PERSON_ORGANIZATION ( #59, #3, #132 ) ;
#87 = CARTESIAN_POINT ( 'NONE',  ( 1.040461438975253740E-13, 0.7499999999999962252, 29.80000000000000071 ) ) ;
#88 = CALENDAR_DATE ( 2021, 8, 10 ) ;
#89 = CIRCLE ( 'NONE', #16, 0.7499999999999998890 ) ;
#90 = EDGE_LOOP ( 'NONE', ( #72 ) ) ;
#91 = ORIENTED_EDGE ( 'NONE', *, *, #48, .F. ) ;
#92 = ORIENTED_EDGE ( 'NONE', *, *, #32, .F. ) ;
#93 = CC_DESIGN_SECURITY_CLASSIFICATION ( #27, ( #191 ) ) ;
#94 = CARTESIAN_POINT ( 'NONE',  ( 2.199633243471174014E-14, -7.715274834628325378E-16, 6.299999999999999822 ) ) ;
#95 = CARTESIAN_POINT ( 'NONE',  ( 8.601363918179943165E-16, -3.016952338685795098E-17, 0.2463528538013013414 ) ) ;
#96 = CARTESIAN_POINT ( 'NONE',  ( 1.047444401652940007E-13, 0.5499999999999963807, 30.00000000000000000 ) ) ;
#97 = CARTESIAN_POINT ( 'NONE',  ( 8.601363918179943165E-16, -3.016952338685795098E-17, 0.2463528538013013414 ) ) ;
#98 = CARTESIAN_POINT ( 'NONE',  ( 2.405245627938043046E-14, 0.7499999999999963363, 6.888897274573423601 ) ) ;
#99 = EDGE_CURVE ( 'NONE', #134, #134, #198, .T. ) ;
#100 = DESIGN_CONTEXT ( 'detailed design', #174, 'design' ) ;
#101 = DIRECTION ( 'NONE',  ( 4.697390108261570962E-31, 1.000000000000000000, 1.322197771323791553E-16 ) ) ;
#102 = FACE_BOUND ( 'NONE', #152, .T. ) ;
#103 = EDGE_CURVE ( 'NONE', #29, #29, #89, .T. ) ;
#104 = LOCAL_TIME ( 7, 14, 42.00000000000000000, #185 ) ;
#105 = MECHANICAL_CONTEXT ( 'NONE', #85, 'mechanical' ) ;
#106 = COORDINATED_UNIVERSAL_TIME_OFFSET ( 1, 0, .AHEAD. ) ;
#107 = DATE_AND_TIME ( #88, #121 ) ;
#108 = CC_DESIGN_DATE_AND_TIME_ASSIGNMENT ( #136, #169, ( #153 ) ) ;
#109 = LOCAL_TIME ( 7, 14, 42.00000000000000000, #166 ) ;
#110 = ORIENTED_EDGE ( 'NONE', *, *, #99, .T. ) ;
#111 = APPROVAL ( #124, 'UNSPECIFIED' ) ;
#112 = ORIENTED_EDGE ( 'NONE', *, *, #168, .F. ) ;
#113 = FACE_OUTER_BOUND ( 'NONE', #39, .T. ) ;
#114 = PRODUCT ( '55334', '55334', '', ( #105 ) ) ;
#115 = DIRECTION ( 'NONE',  ( -3.491481338843133355E-15, 1.224646799147353207E-16, -1.000000000000000000 ) ) ;
#116 = DATE_AND_TIME ( #200, #41 ) ;
#117 = FACE_OUTER_BOUND ( 'NONE', #19, .T. ) ;
#118 = PERSON_AND_ORGANIZATION ( #82, #195 ) ;
#119 = FACE_BOUND ( 'NONE', #79, .T. ) ;
#120 = CLOSED_SHELL ( 'NONE', ( #211, #162, #148 ) ) ;
#121 = LOCAL_TIME ( 7, 14, 42.00000000000000000, #189 ) ;
#122 = PERSON_AND_ORGANIZATION ( #82, #195 ) ;
#123 = DIRECTION ( 'NONE',  ( 4.275831445896958607E-31, 1.000000000000000000, 1.224646799147353207E-16 ) ) ;
#124 = APPROVAL_STATUS ( 'not_yet_approved' ) ;
#125 = CIRCLE ( 'NONE', #208, 0.4099999999999988098 ) ;
#126 = PERSON_AND_ORGANIZATION ( #82, #195 ) ;
#127 = EDGE_LOOP ( 'NONE', ( #216 ) ) ;
#128 = CC_DESIGN_PERSON_AND_ORGANIZATION_ASSIGNMENT ( #83, #154, ( #191 ) ) ;
#129 = DIRECTION ( 'NONE',  ( -3.491481338843133355E-15, 1.224646799147353207E-16, -1.000000000000000000 ) ) ;
#130 = AXIS2_PLACEMENT_3D ( 'NONE', #133, #150, #167 ) ;
#131 = DIRECTION ( 'NONE',  ( -3.491481338843133355E-15, 1.224646799147353207E-16, -1.000000000000000000 ) ) ;
#132 = APPROVAL_ROLE ( '' ) ;
#133 = CARTESIAN_POINT ( 'NONE',  ( 1.047444401652940007E-13, -3.673940397442059178E-15, 30.00000000000000000 ) ) ;
#134 = VERTEX_POINT ( 'NONE', #98 ) ;
#135 = DIRECTION ( 'NONE',  ( -4.275831445896958607E-31, -1.000000000000000000, -1.224646799147353207E-16 ) ) ;
#136 = DATE_AND_TIME ( #179, #109 ) ;
#137 = ADVANCED_BREP_SHAPE_REPRESENTATION ( '55334', ( #197, #51, #144 ), #192 ) ;
#138 = CYLINDRICAL_SURFACE ( 'NONE', #71, 0.4099999999999985323 ) ;
#139 = PERSON_AND_ORGANIZATION_ROLE ( 'classification_officer' ) ;
#140 = CARTESIAN_POINT ( 'NONE',  ( 2.405245627938043046E-14, -8.436465996961267691E-16, 6.888897274573423601 ) ) ;
#141 = AXIS2_PLACEMENT_3D ( 'NONE', #40, #31, #135 ) ;
#142 = ORIENTED_EDGE ( 'NONE', *, *, #99, .F. ) ;
#143 = PRODUCT_DEFINITION_SHAPE ( 'NONE', 'NONE',  #153 ) ;
#144 = AXIS2_PLACEMENT_3D ( 'NONE', #68, #151, #217 ) ;
#145 = DIRECTION ( 'NONE',  ( -3.491481338843133355E-15, 1.224646799147353207E-16, -1.000000000000000000 ) ) ;
#146 = FACE_OUTER_BOUND ( 'NONE', #90, .T. ) ;
#147 = APPROVAL_DATE_TIME ( #77, #111 ) ;
#148 = ADVANCED_FACE ( 'NONE', ( #113 ), #182, .T. ) ;
#149 =( NAMED_UNIT ( * ) SI_UNIT ( $, .STERADIAN. ) SOLID_ANGLE_UNIT ( ) );
#150 = DIRECTION ( 'NONE',  ( -3.491481338843133355E-15, 1.224646799147353207E-16, -1.000000000000000000 ) ) ;
#151 = DIRECTION ( 'NONE',  ( 0.0000000000000000000, 0.0000000000000000000, 1.000000000000000000 ) ) ;
#152 = EDGE_LOOP ( 'NONE', ( #194 ) ) ;
#153 = PRODUCT_DEFINITION ( 'UNKNOWN', '', #191, #100 ) ;
#154 = PERSON_AND_ORGANIZATION_ROLE ( 'design_supplier' ) ;
#155 = DIRECTION ( 'NONE',  ( 3.491481338843133355E-15, -1.224646799147353207E-16, 1.000000000000000000 ) ) ;
#156 = AXIS2_PLACEMENT_3D ( 'NONE', #161, #199, #7 ) ;
#157 = APPROVAL_ROLE ( '' ) ;
#158 = ORIENTED_EDGE ( 'NONE', *, *, #32, .T. ) ;
#159 = CC_DESIGN_APPROVAL ( #3, ( #191 ) ) ;
#160 = EDGE_LOOP ( 'NONE', ( #142 ) ) ;
#161 = CARTESIAN_POINT ( 'NONE',  ( 2.199633243471174014E-14, 3.074507554456787432E-33, 6.299999999999999822 ) ) ;
#162 = ADVANCED_FACE ( 'NONE', ( #23, #202 ), #138, .T. ) ;
#163 = DIRECTION ( 'NONE',  ( 3.491481338843133355E-15, -1.224646799147353207E-16, 1.000000000000000000 ) ) ;
#164 =( NAMED_UNIT ( * ) PLANE_ANGLE_UNIT ( ) SI_UNIT ( $, .RADIAN. ) );
#165 = FACE_OUTER_BOUND ( 'NONE', #160, .T. ) ;
#166 = COORDINATED_UNIVERSAL_TIME_OFFSET ( 1, 0, .AHEAD. ) ;
#167 = DIRECTION ( 'NONE',  ( 0.0000000000000000000, 1.000000000000000000, 0.0000000000000000000 ) ) ;
#168 = EDGE_CURVE ( 'NONE', #34, #34, #5, .T. ) ;
#169 = DATE_TIME_ROLE ( 'creation_date' ) ;
#170 = DIRECTION ( 'NONE',  ( 4.275831445896958607E-31, 1.000000000000000000, 1.224646799147353207E-16 ) ) ;
#171 = AXIS2_PLACEMENT_3D ( 'NONE', #196, #81, #61 ) ;
#172 = ADVANCED_FACE ( 'NONE', ( #146 ), #28, .F. ) ;
#173 = APPROVAL ( #37, 'UNSPECIFIED' ) ;
#174 = APPLICATION_CONTEXT ( 'configuration controlled 3d designs of mechanical parts and assemblies' ) ;
#175 = PRODUCT_RELATED_PRODUCT_CATEGORY ( 'detail', '', ( #114 ) ) ;
#176 = EDGE_LOOP ( 'NONE', ( #91 ) ) ;
#177 = DIRECTION ( 'NONE',  ( 0.0000000000000000000, 1.000000000000000000, 0.0000000000000000000 ) ) ;
#178 = CC_DESIGN_PERSON_AND_ORGANIZATION_ASSIGNMENT ( #118, #215, ( #153 ) ) ;
#179 = CALENDAR_DATE ( 2021, 8, 10 ) ;
#180 = DIRECTION ( 'NONE',  ( 0.0000000000000000000, 1.000000000000000000, 0.0000000000000000000 ) ) ;
#181 = APPROVAL_DATE_TIME ( #116, #3 ) ;
#182 = PLANE ( 'NONE',  #141 ) ;
#183 = DIRECTION ( 'NONE',  ( 0.0000000000000000000, 1.000000000000000000, 0.0000000000000000000 ) ) ;
#184 = APPLICATION_PROTOCOL_DEFINITION ( 'international standard', 'config_control_design', 1994, #174 ) ;
#185 = COORDINATED_UNIVERSAL_TIME_OFFSET ( 1, 0, .AHEAD. ) ;
#186 = LOCAL_TIME ( 7, 14, 42.00000000000000000, #106 ) ;
#187 = CC_DESIGN_PERSON_AND_ORGANIZATION_ASSIGNMENT ( #66, #139, ( #27 ) ) ;
#188 = DATE_AND_TIME ( #209, #186 ) ;
#189 = COORDINATED_UNIVERSAL_TIME_OFFSET ( 1, 0, .AHEAD. ) ;
#190 = ADVANCED_FACE ( 'NONE', ( #75 ), #22, .F. ) ;
#191 = PRODUCT_DEFINITION_FORMATION_WITH_SPECIFIED_SOURCE ( 'ANY', '', #114, .NOT_KNOWN. ) ;
#192 =( GEOMETRIC_REPRESENTATION_CONTEXT ( 3 ) GLOBAL_UNCERTAINTY_ASSIGNED_CONTEXT ( ( #30 ) ) GLOBAL_UNIT_ASSIGNED_CONTEXT ( ( #50, #164, #149 ) ) REPRESENTATION_CONTEXT ( 'NONE', 'WORKASPACE' ) );
#193 = DATE_TIME_ROLE ( 'classification_date' ) ;
#194 = ORIENTED_EDGE ( 'NONE', *, *, #70, .T. ) ;
#195 = ORGANIZATION ( 'UNSPECIFIED', 'UNSPECIFIED', '' ) ;
#196 = CARTESIAN_POINT ( 'NONE',  ( 2.405245627938043046E-14, -8.436465996961267691E-16, 6.888897274573423601 ) ) ;
#197 = MANIFOLD_SOLID_BREP ( 'Corps-Déplacer/Copier1[1]', #17 ) ;
#198 = CIRCLE ( 'NONE', #171, 0.7499999999999972244 ) ;
#199 = DIRECTION ( 'NONE',  ( 3.491481338843133355E-15, -1.224646799147353207E-16, 1.000000000000000000 ) ) ;
#200 = CALENDAR_DATE ( 2021, 8, 10 ) ;
#201 = ORIENTED_EDGE ( 'NONE', *, *, #103, .F. ) ;
#202 = FACE_OUTER_BOUND ( 'NONE', #54, .T. ) ;
#203 = AXIS2_PLACEMENT_3D ( 'NONE', #97, #213, #101 ) ;
#204 = AXIS2_PLACEMENT_3D ( 'NONE', #13, #218, #180 ) ;
#205 = DIRECTION ( 'NONE',  ( -3.491481338843133355E-15, 1.224646799147353207E-16, -1.000000000000000000 ) ) ;
#206 = APPROVAL_STATUS ( 'not_yet_approved' ) ;
#207 = PERSON_AND_ORGANIZATION_ROLE ( 'design_owner' ) ;
#208 = AXIS2_PLACEMENT_3D ( 'NONE', #56, #145, #183 ) ;
#209 = CALENDAR_DATE ( 2021, 8, 10 ) ;
#210 = AXIS2_PLACEMENT_3D ( 'NONE', #95, #163, #78 ) ;
#211 = ADVANCED_FACE ( 'NONE', ( #76 ), #58, .T. ) ;
#212 = CC_DESIGN_DATE_AND_TIME_ASSIGNMENT ( #107, #193, ( #27 ) ) ;
#213 = DIRECTION ( 'NONE',  ( -3.491481338843133355E-15, 1.224646799147353207E-16, -1.000000000000000000 ) ) ;
#214 = EDGE_LOOP ( 'NONE', ( #110 ) ) ;
#215 = PERSON_AND_ORGANIZATION_ROLE ( 'creator' ) ;
#216 = ORIENTED_EDGE ( 'NONE', *, *, #48, .T. ) ;
#217 = DIRECTION ( 'NONE',  ( 1.000000000000000000, 0.0000000000000000000, 0.0000000000000000000 ) ) ;
#218 = DIRECTION ( 'NONE',  ( -3.491481338843133355E-15, 1.224646799147353207E-16, -1.000000000000000000 ) ) ;
#219 = CARTESIAN_POINT ( 'NONE',  ( 0.0000000000000000000, 0.0000000000000000000, 0.0000000000000000000 ) ) ;
#220 = SECURITY_CLASSIFICATION_LEVEL ( 'unclassified' ) ;
#221 = AXIS2_PLACEMENT_3D ( 'NONE', #49, #131, #123 ) ;
#222 = FACE_OUTER_BOUND ( 'NONE', #214, .T. ) ;
#223 = ADVANCED_FACE ( 'NONE', ( #119, #222 ), #53, .T. ) ;
ENDSEC;
END-ISO-10303-21;
