ISO-10303-21;
HEADER;
FILE_DESCRIPTION (( 'STEP AP203' ),
    '1' );
FILE_NAME ('55333.step',
    '2021-10-08T05:14:41',
    ( '' ),
    ( '' ),
    'SwSTEP 2.0',
    'SolidWorks 2019',
    '' );
FILE_SCHEMA (( 'CONFIG_CONTROL_DESIGN' ));
ENDSEC;

DATA;
#1 = EDGE_LOOP ( 'NONE', ( #3 ) ) ;
#2 = LOCAL_TIME ( 7, 14, 41.00000000000000000, #200 ) ;
#3 = ORIENTED_EDGE ( 'NONE', *, *, #166, .T. ) ;
#4 = ORIENTED_EDGE ( 'NONE', *, *, #81, .F. ) ;
#5 = CIRCLE ( 'NONE', #34, 0.5500000000000000444 ) ;
#6 = FACE_OUTER_BOUND ( 'NONE', #185, .T. ) ;
#7 = CC_DESIGN_PERSON_AND_ORGANIZATION_ASSIGNMENT ( #143, #216, ( #206 ) ) ;
#8 = DIRECTION ( 'NONE',  ( 3.491481338843133355E-15, -1.224646799147353207E-16, 1.000000000000000000 ) ) ;
#9 = LOCAL_TIME ( 7, 14, 41.00000000000000000, #61 ) ;
#10 = CARTESIAN_POINT ( 'NONE',  ( 2.199633243471174014E-14, -7.715274834628325378E-16, 6.299999999999999822 ) ) ;
#11 =( GEOMETRIC_REPRESENTATION_CONTEXT ( 3 ) GLOBAL_UNCERTAINTY_ASSIGNED_CONTEXT ( ( #181 ) ) GLOBAL_UNIT_ASSIGNED_CONTEXT ( ( #124, #107, #176 ) ) REPRESENTATION_CONTEXT ( 'NONE', 'WORKASPACE' ) );
#12 = PERSON_AND_ORGANIZATION_ROLE ( 'design_supplier' ) ;
#13 = APPROVAL_ROLE ( '' ) ;
#14 = CC_DESIGN_PERSON_AND_ORGANIZATION_ASSIGNMENT ( #165, #60, ( #196 ) ) ;
#15 = FACE_OUTER_BOUND ( 'NONE', #82, .T. ) ;
#16 = DIRECTION ( 'NONE',  ( -4.275831445896958607E-31, -1.000000000000000000, -1.224646799147353207E-16 ) ) ;
#17 = CC_DESIGN_APPROVAL ( #41, ( #191 ) ) ;
#18 = CC_DESIGN_PERSON_AND_ORGANIZATION_ASSIGNMENT ( #111, #127, ( #191 ) ) ;
#19 = CARTESIAN_POINT ( 'NONE',  ( 1.047444401652940007E-13, -3.673940397442059178E-15, 30.00000000000000000 ) ) ;
#20 = VERTEX_POINT ( 'NONE', #213 ) ;
#21 = ADVANCED_FACE ( 'NONE', ( #36 ), #204, .T. ) ;
#22 = AXIS2_PLACEMENT_3D ( 'NONE', #190, #23, #175 ) ;
#23 = DIRECTION ( 'NONE',  ( 3.491481338843133355E-15, -1.224646799147353207E-16, 1.000000000000000000 ) ) ;
#24 = EDGE_CURVE ( 'NONE', #173, #173, #138, .T. ) ;
#25 = FACE_OUTER_BOUND ( 'NONE', #186, .T. ) ;
#26 = FACE_BOUND ( 'NONE', #32, .T. ) ;
#27 = CIRCLE ( 'NONE', #65, 0.4049999999999990274 ) ;
#28 = PERSON_AND_ORGANIZATION ( #128, #39 ) ;
#29 = DATE_AND_TIME ( #146, #2 ) ;
#30 = CALENDAR_DATE ( 2021, 8, 10 ) ;
#31 = AXIS2_PLACEMENT_3D ( 'NONE', #104, #140, #170 ) ;
#32 = EDGE_LOOP ( 'NONE', ( #183 ) ) ;
#33 = CLOSED_SHELL ( 'NONE', ( #58, #158, #223, #37, #84 ) ) ;
#34 = AXIS2_PLACEMENT_3D ( 'NONE', #19, #205, #54 ) ;
#35 = CARTESIAN_POINT ( 'NONE',  ( 2.199633243471174014E-14, -7.715274834628325378E-16, 6.299999999999999822 ) ) ;
#36 = FACE_OUTER_BOUND ( 'NONE', #103, .T. ) ;
#37 = ADVANCED_FACE ( 'NONE', ( #96, #80 ), #115, .T. ) ;
#38 = ORIENTED_EDGE ( 'NONE', *, *, #192, .T. ) ;
#39 = ORGANIZATION ( 'UNSPECIFIED', 'UNSPECIFIED', '' ) ;
#40 = DIRECTION ( 'NONE',  ( 4.755382578733935819E-31, 1.000000000000000000, 1.338521200599393857E-16 ) ) ;
#41 = APPROVAL ( #76, 'UNSPECIFIED' ) ;
#42 = CARTESIAN_POINT ( 'NONE',  ( 1.040461438975253740E-13, -3.649447461459112464E-15, 29.80000000000000071 ) ) ;
#43 = FACE_OUTER_BOUND ( 'NONE', #150, .T. ) ;
#44 = AXIS2_PLACEMENT_3D ( 'NONE', #42, #90, #125 ) ;
#45 = DIRECTION ( 'NONE',  ( 4.275831445896958607E-31, 1.000000000000000000, 1.224646799147353454E-16 ) ) ;
#46 = DIRECTION ( 'NONE',  ( 0.0000000000000000000, -1.000000000000000000, 0.0000000000000000000 ) ) ;
#47 = SHAPE_DEFINITION_REPRESENTATION ( #95, #110 ) ;
#48 = PERSON_AND_ORGANIZATION_ROLE ( 'design_owner' ) ;
#49 = APPROVAL_ROLE ( '' ) ;
#50 = AXIS2_PLACEMENT_3D ( 'NONE', #52, #114, #16 ) ;
#51 = CC_DESIGN_DATE_AND_TIME_ASSIGNMENT ( #197, #178, ( #196 ) ) ;
#52 = CARTESIAN_POINT ( 'NONE',  ( 2.199633243471174014E-14, 3.037013559890242771E-33, 6.299999999999999822 ) ) ;
#53 = PLANE ( 'NONE',  #212 ) ;
#54 = DIRECTION ( 'NONE',  ( 0.0000000000000000000, 1.000000000000000000, 0.0000000000000000000 ) ) ;
#55 = DIRECTION ( 'NONE',  ( -3.491481338843133355E-15, 1.224646799147353207E-16, -1.000000000000000000 ) ) ;
#56 = CARTESIAN_POINT ( 'NONE',  ( 2.199633243471174014E-14, 0.4049999999999982503, 6.299999999999999822 ) ) ;
#57 = PLANE ( 'NONE',  #22 ) ;
#58 = ADVANCED_FACE ( 'NONE', ( #131 ), #203, .F. ) ;
#59 = DIRECTION ( 'NONE',  ( 4.275831445896958607E-31, 1.000000000000000000, 1.224646799147353207E-16 ) ) ;
#60 = PERSON_AND_ORGANIZATION_ROLE ( 'classification_officer' ) ;
#61 = COORDINATED_UNIVERSAL_TIME_OFFSET ( 1, 0, .AHEAD. ) ;
#62 = APPROVAL_DATE_TIME ( #108, #219 ) ;
#63 = CC_DESIGN_PERSON_AND_ORGANIZATION_ASSIGNMENT ( #75, #48, ( #134 ) ) ;
#64 = DESIGN_CONTEXT ( 'detailed design', #201, 'design' ) ;
#65 = AXIS2_PLACEMENT_3D ( 'NONE', #10, #210, #121 ) ;
#66 = AXIS2_PLACEMENT_3D ( 'NONE', #157, #120, #45 ) ;
#67 = ORIENTED_EDGE ( 'NONE', *, *, #81, .T. ) ;
#68 = CARTESIAN_POINT ( 'NONE',  ( 1.047444401652940007E-13, -3.673940397442059178E-15, 30.00000000000000000 ) ) ;
#69 = ORIENTED_EDGE ( 'NONE', *, *, #166, .F. ) ;
#70 = DIRECTION ( 'NONE',  ( -4.755382578733935819E-31, -1.000000000000000000, -1.338521200599393857E-16 ) ) ;
#71 = CONICAL_SURFACE ( 'NONE', #169, 0.7499999999999972244, 0.5235987755982928205 ) ;
#72 = DIRECTION ( 'NONE',  ( -3.491481338843133355E-15, 1.224646799147353207E-16, -1.000000000000000000 ) ) ;
#73 = EDGE_CURVE ( 'NONE', #20, #20, #5, .T. ) ;
#74 = CIRCLE ( 'NONE', #31, 0.7499999999999972244 ) ;
#75 = PERSON_AND_ORGANIZATION ( #128, #39 ) ;
#76 = APPROVAL_STATUS ( 'not_yet_approved' ) ;
#77 = CALENDAR_DATE ( 2021, 8, 10 ) ;
#78 = APPROVAL_DATE_TIME ( #29, #98 ) ;
#79 = COORDINATED_UNIVERSAL_TIME_OFFSET ( 1, 0, .AHEAD. ) ;
#80 = FACE_BOUND ( 'NONE', #132, .T. ) ;
#81 = EDGE_CURVE ( 'NONE', #208, #208, #217, .T. ) ;
#82 = EDGE_LOOP ( 'NONE', ( #136 ) ) ;
#83 = ORIENTED_EDGE ( 'NONE', *, *, #73, .T. ) ;
#84 = ADVANCED_FACE ( 'NONE', ( #15 ), #53, .F. ) ;
#85 = ORIENTED_EDGE ( 'NONE', *, *, #24, .T. ) ;
#86 = ORIENTED_EDGE ( 'NONE', *, *, #192, .F. ) ;
#87 = VERTEX_POINT ( 'NONE', #105 ) ;
#88 = VERTEX_POINT ( 'NONE', #193 ) ;
#89 = APPLICATION_PROTOCOL_DEFINITION ( 'international standard', 'config_control_design', 1994, #187 ) ;
#90 = DIRECTION ( 'NONE',  ( -3.491481338843133355E-15, 1.224646799147353207E-16, -1.000000000000000000 ) ) ;
#91 = COORDINATED_UNIVERSAL_TIME_OFFSET ( 1, 0, .AHEAD. ) ;
#92 = APPROVAL_STATUS ( 'not_yet_approved' ) ;
#93 = LOCAL_TIME ( 7, 14, 41.00000000000000000, #79 ) ;
#94 = DATE_AND_TIME ( #161, #112 ) ;
#95 = PRODUCT_DEFINITION_SHAPE ( 'NONE', 'NONE',  #206 ) ;
#96 = FACE_OUTER_BOUND ( 'NONE', #116, .T. ) ;
#97 = CC_DESIGN_SECURITY_CLASSIFICATION ( #196, ( #191 ) ) ;
#98 = APPROVAL ( #179, 'UNSPECIFIED' ) ;
#99 = DIRECTION ( 'NONE',  ( -3.491481338843133355E-15, 1.224646799147353207E-16, -1.000000000000000000 ) ) ;
#100 = CARTESIAN_POINT ( 'NONE',  ( 8.496469236250919347E-16, -2.980160236994505673E-17, 0.2433485507061635411 ) ) ;
#101 = DIRECTION ( 'NONE',  ( -3.491481338843133355E-15, 1.224646799147353207E-16, -1.000000000000000000 ) ) ;
#102 = CC_DESIGN_APPROVAL ( #219, ( #206 ) ) ;
#103 = EDGE_LOOP ( 'NONE', ( #67 ) ) ;
#104 = CARTESIAN_POINT ( 'NONE',  ( 2.408269339474320235E-14, -8.447071749348518133E-16, 6.897557528611267585 ) ) ;
#105 = CARTESIAN_POINT ( 'NONE',  ( 1.040461438975253740E-13, 0.7499999999999962252, 29.80000000000000071 ) ) ;
#106 = CYLINDRICAL_SURFACE ( 'NONE', #144, 0.4049999999999986944 ) ;
#107 =( NAMED_UNIT ( * ) PLANE_ANGLE_UNIT ( ) SI_UNIT ( $, .RADIAN. ) );
#108 = DATE_AND_TIME ( #77, #133 ) ;
#109 = PERSON_AND_ORGANIZATION ( #128, #39 ) ;
#110 = ADVANCED_BREP_SHAPE_REPRESENTATION ( '55333', ( #119, #122, #221 ), #11 ) ;
#111 = PERSON_AND_ORGANIZATION ( #128, #39 ) ;
#112 = LOCAL_TIME ( 7, 14, 41.00000000000000000, #218 ) ;
#113 = DIRECTION ( 'NONE',  ( 3.491481338843133355E-15, -1.224646799147353207E-16, 1.000000000000000000 ) ) ;
#114 = DIRECTION ( 'NONE',  ( 3.491481338843133355E-15, -1.224646799147353207E-16, 1.000000000000000000 ) ) ;
#115 = CONICAL_SURFACE ( 'NONE', #123, 0.5500000000000000444, 0.7853981633974510546 ) ;
#116 = EDGE_LOOP ( 'NONE', ( #69 ) ) ;
#117 = ORIENTED_EDGE ( 'NONE', *, *, #214, .T. ) ;
#118 = APPROVAL_PERSON_ORGANIZATION ( #28, #219, #49 ) ;
#119 = MANIFOLD_SOLID_BREP ( 'Corps-Déplacer/Copier1[1]', #33 ) ;
#120 = DIRECTION ( 'NONE',  ( -3.491481338843133355E-15, 1.224646799147353207E-16, -1.000000000000000000 ) ) ;
#121 = DIRECTION ( 'NONE',  ( 0.0000000000000000000, 1.000000000000000000, 0.0000000000000000000 ) ) ;
#122 = MANIFOLD_SOLID_BREP ( 'Corps-Déplacer/Copier1[2]', #155 ) ;
#123 = AXIS2_PLACEMENT_3D ( 'NONE', #68, #99, #149 ) ;
#124 =( LENGTH_UNIT ( ) NAMED_UNIT ( * ) SI_UNIT ( .MILLI., .METRE. ) );
#125 = DIRECTION ( 'NONE',  ( 0.0000000000000000000, 1.000000000000000000, 0.0000000000000000000 ) ) ;
#126 = MECHANICAL_CONTEXT ( 'NONE', #187, 'mechanical' ) ;
#127 = PERSON_AND_ORGANIZATION_ROLE ( 'creator' ) ;
#128 = PERSON ( 'UNSPECIFIED', 'UNSPECIFIED', 'UNSPECIFIED', ('UNSPECIFIED'), ('UNSPECIFIED'), ('UNSPECIFIED') ) ;
#129 = APPROVAL_PERSON_ORGANIZATION ( #195, #98, #13 ) ;
#130 = PRODUCT_RELATED_PRODUCT_CATEGORY ( 'detail', '', ( #134 ) ) ;
#131 = FACE_OUTER_BOUND ( 'NONE', #202, .T. ) ;
#132 = EDGE_LOOP ( 'NONE', ( #83 ) ) ;
#133 = LOCAL_TIME ( 7, 14, 41.00000000000000000, #91 ) ;
#134 = PRODUCT ( '55333', '55333', '', ( #126 ) ) ;
#135 = CARTESIAN_POINT ( 'NONE',  ( 1.047444401652940007E-13, 4.124339402320052999E-33, 30.00000000000000000 ) ) ;
#136 = ORIENTED_EDGE ( 'NONE', *, *, #73, .F. ) ;
#137 = DIRECTION ( 'NONE',  ( 4.275831445896958607E-31, 1.000000000000000000, 1.224646799147352961E-16 ) ) ;
#138 = CIRCLE ( 'NONE', #163, 0.4049999999999990274 ) ;
#139 = CYLINDRICAL_SURFACE ( 'NONE', #66, 0.7499999999999984457 ) ;
#140 = DIRECTION ( 'NONE',  ( -3.491481338843133355E-15, 1.224646799147353207E-16, -1.000000000000000000 ) ) ;
#141 = CARTESIAN_POINT ( 'NONE',  ( 0.0000000000000000000, 0.0000000000000000000, 0.0000000000000000000 ) ) ;
#142 = APPLICATION_PROTOCOL_DEFINITION ( 'international standard', 'config_control_design', 1994, #201 ) ;
#143 = PERSON_AND_ORGANIZATION ( #128, #39 ) ;
#144 = AXIS2_PLACEMENT_3D ( 'NONE', #160, #72, #137 ) ;
#145 = DIRECTION ( 'NONE',  ( 0.0000000000000000000, 0.0000000000000000000, 1.000000000000000000 ) ) ;
#146 = CALENDAR_DATE ( 2021, 8, 10 ) ;
#147 = ADVANCED_FACE ( 'NONE', ( #154 ), #57, .T. ) ;
#148 = AXIS2_PLACEMENT_3D ( 'NONE', #168, #188, #40 ) ;
#149 = DIRECTION ( 'NONE',  ( 0.0000000000000000000, 1.000000000000000000, 0.0000000000000000000 ) ) ;
#150 = EDGE_LOOP ( 'NONE', ( #85 ) ) ;
#151 = ORIENTED_EDGE ( 'NONE', *, *, #24, .F. ) ;
#152 = CC_DESIGN_APPROVAL ( #98, ( #196 ) ) ;
#153 = EDGE_LOOP ( 'NONE', ( #151 ) ) ;
#154 = FACE_OUTER_BOUND ( 'NONE', #153, .T. ) ;
#155 = CLOSED_SHELL ( 'NONE', ( #21, #177, #147 ) ) ;
#156 = VERTEX_POINT ( 'NONE', #194 ) ;
#157 = CARTESIAN_POINT ( 'NONE',  ( 0.0000000000000000000, 0.0000000000000000000, 0.0000000000000000000 ) ) ;
#158 = ADVANCED_FACE ( 'NONE', ( #26, #25 ), #71, .T. ) ;
#159 = CIRCLE ( 'NONE', #44, 0.7499999999999998890 ) ;
#160 = CARTESIAN_POINT ( 'NONE',  ( 0.0000000000000000000, 0.0000000000000000000, 0.0000000000000000000 ) ) ;
#161 = CALENDAR_DATE ( 2021, 8, 10 ) ;
#162 = APPROVAL_ROLE ( '' ) ;
#163 = AXIS2_PLACEMENT_3D ( 'NONE', #35, #101, #207 ) ;
#164 = DATE_TIME_ROLE ( 'creation_date' ) ;
#165 = PERSON_AND_ORGANIZATION ( #128, #39 ) ;
#166 = EDGE_CURVE ( 'NONE', #87, #87, #159, .T. ) ;
#167 = APPROVAL_PERSON_ORGANIZATION ( #109, #41, #162 ) ;
#168 = CARTESIAN_POINT ( 'NONE',  ( 8.496469236250919347E-16, -2.980160236994505673E-17, 0.2433485507061635411 ) ) ;
#169 = AXIS2_PLACEMENT_3D ( 'NONE', #171, #8, #46 ) ;
#170 = DIRECTION ( 'NONE',  ( 0.0000000000000000000, 1.000000000000000000, 0.0000000000000000000 ) ) ;
#171 = CARTESIAN_POINT ( 'NONE',  ( 2.408269339474320235E-14, -8.447071749348518133E-16, 6.897557528611267585 ) ) ;
#172 = AXIS2_PLACEMENT_3D ( 'NONE', #100, #113, #70 ) ;
#173 = VERTEX_POINT ( 'NONE', #56 ) ;
#174 = CC_DESIGN_PERSON_AND_ORGANIZATION_ASSIGNMENT ( #215, #12, ( #191 ) ) ;
#175 = DIRECTION ( 'NONE',  ( -4.275831445896958607E-31, -1.000000000000000000, -1.224646799147353207E-16 ) ) ;
#176 =( NAMED_UNIT ( * ) SI_UNIT ( $, .STERADIAN. ) SOLID_ANGLE_UNIT ( ) );
#177 = ADVANCED_FACE ( 'NONE', ( #6, #43 ), #106, .T. ) ;
#178 = DATE_TIME_ROLE ( 'classification_date' ) ;
#179 = APPROVAL_STATUS ( 'not_yet_approved' ) ;
#180 = SECURITY_CLASSIFICATION_LEVEL ( 'unclassified' ) ;
#181 = UNCERTAINTY_MEASURE_WITH_UNIT (LENGTH_MEASURE( 1.000000000000000082E-05 ), #124, 'distance_accuracy_value', 'NONE');
#182 = DIRECTION ( 'NONE',  ( 1.000000000000000000, 0.0000000000000000000, 0.0000000000000000000 ) ) ;
#183 = ORIENTED_EDGE ( 'NONE', *, *, #214, .F. ) ;
#184 = EDGE_LOOP ( 'NONE', ( #86 ) ) ;
#185 = EDGE_LOOP ( 'NONE', ( #4 ) ) ;
#186 = EDGE_LOOP ( 'NONE', ( #38 ) ) ;
#187 = APPLICATION_CONTEXT ( 'configuration controlled 3d designs of mechanical parts and assemblies' ) ;
#188 = DIRECTION ( 'NONE',  ( -3.491481338843133355E-15, 1.224646799147353207E-16, -1.000000000000000000 ) ) ;
#189 = CARTESIAN_POINT ( 'NONE',  ( 8.496469236250921320E-16, 0.4049999999999982503, 0.2433485507061635966 ) ) ;
#190 = CARTESIAN_POINT ( 'NONE',  ( 2.199633243471174014E-14, 3.037013559890242771E-33, 6.299999999999999822 ) ) ;
#191 = PRODUCT_DEFINITION_FORMATION_WITH_SPECIFIED_SOURCE ( 'ANY', '', #134, .NOT_KNOWN. ) ;
#192 = EDGE_CURVE ( 'NONE', #88, #88, #74, .T. ) ;
#193 = CARTESIAN_POINT ( 'NONE',  ( 2.408269339474320235E-14, 0.7499999999999963363, 6.897557528611267585 ) ) ;
#194 = CARTESIAN_POINT ( 'NONE',  ( 2.199633243471174014E-14, 0.4049999999999982503, 6.299999999999999822 ) ) ;
#195 = PERSON_AND_ORGANIZATION ( #128, #39 ) ;
#196 = SECURITY_CLASSIFICATION ( '', '', #180 ) ;
#197 = DATE_AND_TIME ( #30, #93 ) ;
#198 = CALENDAR_DATE ( 2021, 8, 10 ) ;
#199 = APPROVAL_DATE_TIME ( #220, #41 ) ;
#200 = COORDINATED_UNIVERSAL_TIME_OFFSET ( 1, 0, .AHEAD. ) ;
#201 = APPLICATION_CONTEXT ( 'configuration controlled 3d designs of mechanical parts and assemblies' ) ;
#202 = EDGE_LOOP ( 'NONE', ( #117 ) ) ;
#203 = PLANE ( 'NONE',  #50 ) ;
#204 = CONICAL_SURFACE ( 'NONE', #172, 0.4049999999999983058, 1.029744258676649649 ) ;
#205 = DIRECTION ( 'NONE',  ( -3.491481338843133355E-15, 1.224646799147353207E-16, -1.000000000000000000 ) ) ;
#206 = PRODUCT_DEFINITION ( 'UNKNOWN', '', #191, #64 ) ;
#207 = DIRECTION ( 'NONE',  ( 0.0000000000000000000, 1.000000000000000000, 0.0000000000000000000 ) ) ;
#208 = VERTEX_POINT ( 'NONE', #189 ) ;
#209 = FACE_OUTER_BOUND ( 'NONE', #1, .T. ) ;
#210 = DIRECTION ( 'NONE',  ( -3.491481338843133355E-15, 1.224646799147353207E-16, -1.000000000000000000 ) ) ;
#211 = FACE_OUTER_BOUND ( 'NONE', #184, .T. ) ;
#212 = AXIS2_PLACEMENT_3D ( 'NONE', #135, #55, #59 ) ;
#213 = CARTESIAN_POINT ( 'NONE',  ( 1.047444401652940007E-13, 0.5499999999999963807, 30.00000000000000000 ) ) ;
#214 = EDGE_CURVE ( 'NONE', #156, #156, #27, .T. ) ;
#215 = PERSON_AND_ORGANIZATION ( #128, #39 ) ;
#216 = PERSON_AND_ORGANIZATION_ROLE ( 'creator' ) ;
#217 = CIRCLE ( 'NONE', #148, 0.4049999999999983058 ) ;
#218 = COORDINATED_UNIVERSAL_TIME_OFFSET ( 1, 0, .AHEAD. ) ;
#219 = APPROVAL ( #92, 'UNSPECIFIED' ) ;
#220 = DATE_AND_TIME ( #198, #9 ) ;
#221 = AXIS2_PLACEMENT_3D ( 'NONE', #141, #145, #182 ) ;
#222 = CC_DESIGN_DATE_AND_TIME_ASSIGNMENT ( #94, #164, ( #206 ) ) ;
#223 = ADVANCED_FACE ( 'NONE', ( #211, #209 ), #139, .T. ) ;
ENDSEC;
END-ISO-10303-21;
