ISO-10303-21;
HEADER;
FILE_DESCRIPTION (( 'STEP AP203' ),
    '1' );
FILE_NAME ('55332.step',
    '2021-10-08T05:14:40',
    ( '' ),
    ( '' ),
    'SwSTEP 2.0',
    'SolidWorks 2019',
    '' );
FILE_SCHEMA (( 'CONFIG_CONTROL_DESIGN' ));
ENDSEC;

DATA;
#1 = CALENDAR_DATE ( 2021, 8, 10 ) ;
#2 = CLOSED_SHELL ( 'NONE', ( #62, #19, #153 ) ) ;
#3 = EDGE_LOOP ( 'NONE', ( #193 ) ) ;
#4 = LOCAL_TIME ( 7, 14, 40.00000000000000000, #169 ) ;
#5 = FACE_OUTER_BOUND ( 'NONE', #109, .T. ) ;
#6 = DIRECTION ( 'NONE',  ( -4.814824860968109776E-31, -1.000000000000000000, -1.355252715606886212E-16 ) ) ;
#7 = PLANE ( 'NONE',  #27 ) ;
#8 = CARTESIAN_POINT ( 'NONE',  ( 2.199633243471174014E-14, -7.715274834628325378E-16, 6.299999999999999822 ) ) ;
#9 = FACE_OUTER_BOUND ( 'NONE', #142, .T. ) ;
#10 = APPROVAL_ROLE ( '' ) ;
#11 = COORDINATED_UNIVERSAL_TIME_OFFSET ( 1, 0, .AHEAD. ) ;
#12 = APPLICATION_PROTOCOL_DEFINITION ( 'international standard', 'config_control_design', 1994, #134 ) ;
#13 = AXIS2_PLACEMENT_3D ( 'NONE', #187, #201, #88 ) ;
#14 = ORIENTED_EDGE ( 'NONE', *, *, #116, .F. ) ;
#15 = CALENDAR_DATE ( 2021, 8, 10 ) ;
#16 = ORIENTED_EDGE ( 'NONE', *, *, #190, .T. ) ;
#17 = AXIS2_PLACEMENT_3D ( 'NONE', #43, #101, #147 ) ;
#18 = DIRECTION ( 'NONE',  ( -3.491481338843133355E-15, 1.224646799147353207E-16, -1.000000000000000000 ) ) ;
#19 = ADVANCED_FACE ( 'NONE', ( #9, #84 ), #176, .T. ) ;
#20 = AXIS2_PLACEMENT_3D ( 'NONE', #162, #212, #64 ) ;
#21 = CARTESIAN_POINT ( 'NONE',  ( 2.199633243471174014E-14, 2.999519565323698110E-33, 6.299999999999999822 ) ) ;
#22 = ADVANCED_BREP_SHAPE_REPRESENTATION ( '55332', ( #126, #52, #13 ), #74 ) ;
#23 = EDGE_LOOP ( 'NONE', ( #56 ) ) ;
#24 = ADVANCED_FACE ( 'NONE', ( #216 ), #7, .F. ) ;
#25 = DIRECTION ( 'NONE',  ( 0.0000000000000000000, 1.000000000000000000, 0.0000000000000000000 ) ) ;
#26 = PRODUCT ( '55332', '55332', '', ( #186 ) ) ;
#27 = AXIS2_PLACEMENT_3D ( 'NONE', #66, #65, #149 ) ;
#28 = PLANE ( 'NONE',  #185 ) ;
#29 = PERSON_AND_ORGANIZATION_ROLE ( 'creator' ) ;
#30 =( NAMED_UNIT ( * ) SI_UNIT ( $, .STERADIAN. ) SOLID_ANGLE_UNIT ( ) );
#31 = CC_DESIGN_PERSON_AND_ORGANIZATION_ASSIGNMENT ( #70, #170, ( #183 ) ) ;
#32 =( NAMED_UNIT ( * ) PLANE_ANGLE_UNIT ( ) SI_UNIT ( $, .RADIAN. ) );
#33 = CC_DESIGN_APPROVAL ( #168, ( #94 ) ) ;
#34 = PERSON_AND_ORGANIZATION ( #42, #61 ) ;
#35 = COORDINATED_UNIVERSAL_TIME_OFFSET ( 1, 0, .AHEAD. ) ;
#36 = AXIS2_PLACEMENT_3D ( 'NONE', #96, #82, #210 ) ;
#37 = ORIENTED_EDGE ( 'NONE', *, *, #165, .F. ) ;
#38 = APPROVAL_STATUS ( 'not_yet_approved' ) ;
#39 = AXIS2_PLACEMENT_3D ( 'NONE', #8, #54, #151 ) ;
#40 = DATE_AND_TIME ( #1, #68 ) ;
#41 = ORIENTED_EDGE ( 'NONE', *, *, #211, .T. ) ;
#42 = PERSON ( 'UNSPECIFIED', 'UNSPECIFIED', 'UNSPECIFIED', ('UNSPECIFIED'), ('UNSPECIFIED'), ('UNSPECIFIED') ) ;
#43 = CARTESIAN_POINT ( 'NONE',  ( 2.411293051010597423E-14, -8.457677501735765617E-16, 6.906217782649111570 ) ) ;
#44 = CIRCLE ( 'NONE', #150, 0.3999999999999983569 ) ;
#45 = CARTESIAN_POINT ( 'NONE',  ( 2.411293051010597423E-14, -8.457677501735765617E-16, 6.906217782649111570 ) ) ;
#46 = CARTESIAN_POINT ( 'NONE',  ( 1.047444401652940007E-13, -3.673940397442059178E-15, 30.00000000000000000 ) ) ;
#47 = FACE_OUTER_BOUND ( 'NONE', #206, .T. ) ;
#48 = APPROVAL_PERSON_ORGANIZATION ( #120, #72, #123 ) ;
#49 = PERSON_AND_ORGANIZATION ( #42, #61 ) ;
#50 = CC_DESIGN_PERSON_AND_ORGANIZATION_ASSIGNMENT ( #205, #111, ( #94 ) ) ;
#51 = CARTESIAN_POINT ( 'NONE',  ( 2.199633243471174014E-14, 0.3999999999999984679, 6.299999999999999822 ) ) ;
#52 = MANIFOLD_SOLID_BREP ( 'Corps-Déplacer/Copier1[2]', #2 ) ;
#53 = APPROVAL_PERSON_ORGANIZATION ( #156, #168, #175 ) ;
#54 = DIRECTION ( 'NONE',  ( -3.491481338843133355E-15, 1.224646799147353207E-16, -1.000000000000000000 ) ) ;
#55 = CLOSED_SHELL ( 'NONE', ( #24, #104, #180, #110, #129 ) ) ;
#56 = ORIENTED_EDGE ( 'NONE', *, *, #85, .F. ) ;
#57 = LOCAL_TIME ( 7, 14, 40.00000000000000000, #11 ) ;
#58 = EDGE_LOOP ( 'NONE', ( #16 ) ) ;
#59 = ORIENTED_EDGE ( 'NONE', *, *, #165, .T. ) ;
#60 = APPROVAL_DATE_TIME ( #40, #168 ) ;
#61 = ORGANIZATION ( 'UNSPECIFIED', 'UNSPECIFIED', '' ) ;
#62 = ADVANCED_FACE ( 'NONE', ( #112 ), #124, .T. ) ;
#63 = DIRECTION ( 'NONE',  ( 0.0000000000000000000, 1.000000000000000000, 0.0000000000000000000 ) ) ;
#64 = DIRECTION ( 'NONE',  ( 4.275831445896958607E-31, 1.000000000000000000, 1.224646799147353454E-16 ) ) ;
#65 = DIRECTION ( 'NONE',  ( 3.491481338843133355E-15, -1.224646799147353207E-16, 1.000000000000000000 ) ) ;
#66 = CARTESIAN_POINT ( 'NONE',  ( 2.199633243471174014E-14, 2.999519565323698110E-33, 6.299999999999999822 ) ) ;
#67 = PRODUCT_DEFINITION ( 'UNKNOWN', '', #183, #122 ) ;
#68 = LOCAL_TIME ( 7, 14, 40.00000000000000000, #158 ) ;
#69 = APPROVAL_DATE_TIME ( #217, #174 ) ;
#70 = PERSON_AND_ORGANIZATION ( #42, #61 ) ;
#71 = CARTESIAN_POINT ( 'NONE',  ( 2.411293051010597423E-14, 0.7499999999999963363, 6.906217782649111570 ) ) ;
#72 = APPROVAL ( #137, 'UNSPECIFIED' ) ;
#73 = UNCERTAINTY_MEASURE_WITH_UNIT (LENGTH_MEASURE( 1.000000000000000082E-05 ), #138, 'distance_accuracy_value', 'NONE');
#74 =( GEOMETRIC_REPRESENTATION_CONTEXT ( 3 ) GLOBAL_UNCERTAINTY_ASSIGNED_CONTEXT ( ( #73 ) ) GLOBAL_UNIT_ASSIGNED_CONTEXT ( ( #138, #32, #30 ) ) REPRESENTATION_CONTEXT ( 'NONE', 'WORKASPACE' ) );
#75 = VERTEX_POINT ( 'NONE', #71 ) ;
#76 = CC_DESIGN_PERSON_AND_ORGANIZATION_ASSIGNMENT ( #102, #164, ( #183 ) ) ;
#77 = CIRCLE ( 'NONE', #39, 0.3999999999999991895 ) ;
#78 = CONICAL_SURFACE ( 'NONE', #17, 0.7499999999999972244, 0.5235987755982932645 ) ;
#79 = DIRECTION ( 'NONE',  ( 3.491481338843133355E-15, -1.224646799147353207E-16, 1.000000000000000000 ) ) ;
#80 = DIRECTION ( 'NONE',  ( 4.275831445896958607E-31, 1.000000000000000000, 1.224646799147353454E-16 ) ) ;
#81 = CC_DESIGN_DATE_AND_TIME_ASSIGNMENT ( #86, #202, ( #67 ) ) ;
#82 = DIRECTION ( 'NONE',  ( -3.491481338843133355E-15, 1.224646799147353207E-16, -1.000000000000000000 ) ) ;
#83 = FACE_BOUND ( 'NONE', #163, .T. ) ;
#84 = FACE_OUTER_BOUND ( 'NONE', #148, .T. ) ;
#85 = EDGE_CURVE ( 'NONE', #220, #220, #87, .T. ) ;
#86 = DATE_AND_TIME ( #89, #57 ) ;
#87 = CIRCLE ( 'NONE', #36, 0.3999999999999991895 ) ;
#88 = DIRECTION ( 'NONE',  ( 1.000000000000000000, 0.0000000000000000000, 0.0000000000000000000 ) ) ;
#89 = CALENDAR_DATE ( 2021, 8, 10 ) ;
#90 = DATE_AND_TIME ( #139, #178 ) ;
#91 = COORDINATED_UNIVERSAL_TIME_OFFSET ( 1, 0, .AHEAD. ) ;
#92 = ORIENTED_EDGE ( 'NONE', *, *, #204, .T. ) ;
#93 = CC_DESIGN_PERSON_AND_ORGANIZATION_ASSIGNMENT ( #49, #29, ( #67 ) ) ;
#94 = SECURITY_CLASSIFICATION ( '', '', #143 ) ;
#95 = EDGE_LOOP ( 'NONE', ( #92 ) ) ;
#96 = CARTESIAN_POINT ( 'NONE',  ( 2.199633243471174014E-14, -7.715274834628325378E-16, 6.299999999999999822 ) ) ;
#97 = FACE_OUTER_BOUND ( 'NONE', #3, .T. ) ;
#98 = DIRECTION ( 'NONE',  ( -3.491481338843133355E-15, 1.224646799147353207E-16, -1.000000000000000000 ) ) ;
#99 = CYLINDRICAL_SURFACE ( 'NONE', #20, 0.7499999999999984457 ) ;
#100 = APPLICATION_CONTEXT ( 'configuration controlled 3d designs of mechanical parts and assemblies' ) ;
#101 = DIRECTION ( 'NONE',  ( 3.491481338843133355E-15, -1.224646799147353207E-16, 1.000000000000000000 ) ) ;
#102 = PERSON_AND_ORGANIZATION ( #42, #61 ) ;
#103 = CARTESIAN_POINT ( 'NONE',  ( 2.199633243471174014E-14, 0.3999999999999984679, 6.299999999999999822 ) ) ;
#104 = ADVANCED_FACE ( 'NONE', ( #83, #131 ), #78, .T. ) ;
#105 = PERSON_AND_ORGANIZATION_ROLE ( 'design_owner' ) ;
#106 = APPROVAL_STATUS ( 'not_yet_approved' ) ;
#107 = AXIS2_PLACEMENT_3D ( 'NONE', #46, #192, #25 ) ;
#108 = DATE_TIME_ROLE ( 'classification_date' ) ;
#109 = EDGE_LOOP ( 'NONE', ( #14 ) ) ;
#110 = ADVANCED_FACE ( 'NONE', ( #5, #132 ), #198, .T. ) ;
#111 = PERSON_AND_ORGANIZATION_ROLE ( 'classification_officer' ) ;
#112 = FACE_OUTER_BOUND ( 'NONE', #95, .T. ) ;
#113 = CARTESIAN_POINT ( 'NONE',  ( 1.047444401652940007E-13, -3.673940397442059178E-15, 30.00000000000000000 ) ) ;
#114 = DIRECTION ( 'NONE',  ( -3.491481338843133355E-15, 1.224646799147353207E-16, -1.000000000000000000 ) ) ;
#115 = DIRECTION ( 'NONE',  ( -3.491481338843133355E-15, 1.224646799147353207E-16, -1.000000000000000000 ) ) ;
#116 = EDGE_CURVE ( 'NONE', #199, #199, #209, .T. ) ;
#117 = FACE_OUTER_BOUND ( 'NONE', #127, .T. ) ;
#118 = CIRCLE ( 'NONE', #160, 0.7499999999999972244 ) ;
#119 = CARTESIAN_POINT ( 'NONE',  ( 1.047444401652940007E-13, 0.5499999999999963807, 30.00000000000000000 ) ) ;
#120 = PERSON_AND_ORGANIZATION ( #42, #61 ) ;
#121 = VERTEX_POINT ( 'NONE', #119 ) ;
#122 = DESIGN_CONTEXT ( 'detailed design', #134, 'design' ) ;
#123 = APPROVAL_ROLE ( '' ) ;
#124 = CONICAL_SURFACE ( 'NONE', #218, 0.3999999999999983569, 1.029744258676649649 ) ;
#125 = EDGE_LOOP ( 'NONE', ( #59 ) ) ;
#126 = MANIFOLD_SOLID_BREP ( 'Corps-Déplacer/Copier1[1]', #55 ) ;
#127 = EDGE_LOOP ( 'NONE', ( #157 ) ) ;
#128 = AXIS2_PLACEMENT_3D ( 'NONE', #213, #145, #80 ) ;
#129 = ADVANCED_FACE ( 'NONE', ( #47 ), #28, .F. ) ;
#130 = DIRECTION ( 'NONE',  ( -4.275831445896958607E-31, -1.000000000000000000, -1.224646799147353207E-16 ) ) ;
#131 = FACE_OUTER_BOUND ( 'NONE', #58, .T. ) ;
#132 = FACE_BOUND ( 'NONE', #125, .T. ) ;
#133 = PRODUCT_DEFINITION_SHAPE ( 'NONE', 'NONE',  #67 ) ;
#134 = APPLICATION_CONTEXT ( 'configuration controlled 3d designs of mechanical parts and assemblies' ) ;
#135 = CARTESIAN_POINT ( 'NONE',  ( 1.040461438975253740E-13, -3.649447461459112464E-15, 29.80000000000000071 ) ) ;
#136 = CARTESIAN_POINT ( 'NONE',  ( 8.391574554321897502E-16, -2.943368135303215631E-17, 0.2403442476110257686 ) ) ;
#137 = APPROVAL_STATUS ( 'not_yet_approved' ) ;
#138 =( LENGTH_UNIT ( ) NAMED_UNIT ( * ) SI_UNIT ( .MILLI., .METRE. ) );
#139 = CALENDAR_DATE ( 2021, 8, 10 ) ;
#140 = ORIENTED_EDGE ( 'NONE', *, *, #85, .T. ) ;
#141 = LOCAL_TIME ( 7, 14, 40.00000000000000000, #91 ) ;
#142 = EDGE_LOOP ( 'NONE', ( #161 ) ) ;
#143 = SECURITY_CLASSIFICATION_LEVEL ( 'unclassified' ) ;
#144 = APPROVAL_PERSON_ORGANIZATION ( #166, #174, #10 ) ;
#145 = DIRECTION ( 'NONE',  ( -3.491481338843133355E-15, 1.224646799147353207E-16, -1.000000000000000000 ) ) ;
#146 = DIRECTION ( 'NONE',  ( -3.491481338843133355E-15, 1.224646799147353207E-16, -1.000000000000000000 ) ) ;
#147 = DIRECTION ( 'NONE',  ( 0.0000000000000000000, -1.000000000000000000, 0.0000000000000000000 ) ) ;
#148 = EDGE_LOOP ( 'NONE', ( #140 ) ) ;
#149 = DIRECTION ( 'NONE',  ( -4.275831445896958607E-31, -1.000000000000000000, -1.224646799147353207E-16 ) ) ;
#150 = AXIS2_PLACEMENT_3D ( 'NONE', #179, #115, #181 ) ;
#151 = DIRECTION ( 'NONE',  ( 0.0000000000000000000, 1.000000000000000000, 0.0000000000000000000 ) ) ;
#152 = CARTESIAN_POINT ( 'NONE',  ( 8.391574554321899474E-16, 0.3999999999999983014, 0.2403442476110258241 ) ) ;
#153 = ADVANCED_FACE ( 'NONE', ( #159 ), #195, .T. ) ;
#154 = AXIS2_PLACEMENT_3D ( 'NONE', #113, #146, #63 ) ;
#155 = DATE_AND_TIME ( #15, #141 ) ;
#156 = PERSON_AND_ORGANIZATION ( #42, #61 ) ;
#157 = ORIENTED_EDGE ( 'NONE', *, *, #116, .T. ) ;
#158 = COORDINATED_UNIVERSAL_TIME_OFFSET ( 1, 0, .AHEAD. ) ;
#159 = FACE_OUTER_BOUND ( 'NONE', #23, .T. ) ;
#160 = AXIS2_PLACEMENT_3D ( 'NONE', #45, #114, #182 ) ;
#161 = ORIENTED_EDGE ( 'NONE', *, *, #204, .F. ) ;
#162 = CARTESIAN_POINT ( 'NONE',  ( 0.0000000000000000000, 0.0000000000000000000, 0.0000000000000000000 ) ) ;
#163 = EDGE_LOOP ( 'NONE', ( #189 ) ) ;
#164 = PERSON_AND_ORGANIZATION_ROLE ( 'creator' ) ;
#165 = EDGE_CURVE ( 'NONE', #121, #121, #172, .T. ) ;
#166 = PERSON_AND_ORGANIZATION ( #42, #61 ) ;
#167 = CARTESIAN_POINT ( 'NONE',  ( 1.040461438975253740E-13, 0.7499999999999962252, 29.80000000000000071 ) ) ;
#168 = APPROVAL ( #38, 'UNSPECIFIED' ) ;
#169 = COORDINATED_UNIVERSAL_TIME_OFFSET ( 1, 0, .AHEAD. ) ;
#170 = PERSON_AND_ORGANIZATION_ROLE ( 'design_supplier' ) ;
#171 = PRODUCT_RELATED_PRODUCT_CATEGORY ( 'detail', '', ( #26 ) ) ;
#172 = CIRCLE ( 'NONE', #107, 0.5500000000000000444 ) ;
#173 = EDGE_LOOP ( 'NONE', ( #41 ) ) ;
#174 = APPROVAL ( #106, 'UNSPECIFIED' ) ;
#175 = APPROVAL_ROLE ( '' ) ;
#176 = CYLINDRICAL_SURFACE ( 'NONE', #128, 0.3999999999999987454 ) ;
#177 = CARTESIAN_POINT ( 'NONE',  ( 1.047444401652940007E-13, 4.124339402320052999E-33, 30.00000000000000000 ) ) ;
#178 = LOCAL_TIME ( 7, 14, 40.00000000000000000, #35 ) ;
#179 = CARTESIAN_POINT ( 'NONE',  ( 8.391574554321897502E-16, -2.943368135303215631E-17, 0.2403442476110257686 ) ) ;
#180 = ADVANCED_FACE ( 'NONE', ( #97, #117 ), #99, .T. ) ;
#181 = DIRECTION ( 'NONE',  ( 4.814824860968109776E-31, 1.000000000000000000, 1.355252715606886212E-16 ) ) ;
#182 = DIRECTION ( 'NONE',  ( 0.0000000000000000000, 1.000000000000000000, 0.0000000000000000000 ) ) ;
#183 = PRODUCT_DEFINITION_FORMATION_WITH_SPECIFIED_SOURCE ( 'ANY', '', #26, .NOT_KNOWN. ) ;
#184 = VERTEX_POINT ( 'NONE', #152 ) ;
#185 = AXIS2_PLACEMENT_3D ( 'NONE', #177, #18, #196 ) ;
#186 = MECHANICAL_CONTEXT ( 'NONE', #100, 'mechanical' ) ;
#187 = CARTESIAN_POINT ( 'NONE',  ( 0.0000000000000000000, 0.0000000000000000000, 0.0000000000000000000 ) ) ;
#188 = CC_DESIGN_PERSON_AND_ORGANIZATION_ASSIGNMENT ( #34, #105, ( #26 ) ) ;
#189 = ORIENTED_EDGE ( 'NONE', *, *, #211, .F. ) ;
#190 = EDGE_CURVE ( 'NONE', #75, #75, #118, .T. ) ;
#191 = CC_DESIGN_APPROVAL ( #72, ( #183 ) ) ;
#192 = DIRECTION ( 'NONE',  ( -3.491481338843133355E-15, 1.224646799147353207E-16, -1.000000000000000000 ) ) ;
#193 = ORIENTED_EDGE ( 'NONE', *, *, #190, .F. ) ;
#194 = AXIS2_PLACEMENT_3D ( 'NONE', #21, #79, #130 ) ;
#195 = PLANE ( 'NONE',  #194 ) ;
#196 = DIRECTION ( 'NONE',  ( 4.275831445896958607E-31, 1.000000000000000000, 1.224646799147353207E-16 ) ) ;
#197 = DIRECTION ( 'NONE',  ( 0.0000000000000000000, 1.000000000000000000, 0.0000000000000000000 ) ) ;
#198 = CONICAL_SURFACE ( 'NONE', #154, 0.5500000000000000444, 0.7853981633974510546 ) ;
#199 = VERTEX_POINT ( 'NONE', #167 ) ;
#200 = APPLICATION_PROTOCOL_DEFINITION ( 'international standard', 'config_control_design', 1994, #100 ) ;
#201 = DIRECTION ( 'NONE',  ( 0.0000000000000000000, 0.0000000000000000000, 1.000000000000000000 ) ) ;
#202 = DATE_TIME_ROLE ( 'creation_date' ) ;
#203 = SHAPE_DEFINITION_REPRESENTATION ( #133, #22 ) ;
#204 = EDGE_CURVE ( 'NONE', #184, #184, #44, .T. ) ;
#205 = PERSON_AND_ORGANIZATION ( #42, #61 ) ;
#206 = EDGE_LOOP ( 'NONE', ( #37 ) ) ;
#207 = CC_DESIGN_APPROVAL ( #174, ( #67 ) ) ;
#208 = CC_DESIGN_DATE_AND_TIME_ASSIGNMENT ( #155, #108, ( #94 ) ) ;
#209 = CIRCLE ( 'NONE', #222, 0.7499999999999998890 ) ;
#210 = DIRECTION ( 'NONE',  ( 0.0000000000000000000, 1.000000000000000000, 0.0000000000000000000 ) ) ;
#211 = EDGE_CURVE ( 'NONE', #221, #221, #77, .T. ) ;
#212 = DIRECTION ( 'NONE',  ( -3.491481338843133355E-15, 1.224646799147353207E-16, -1.000000000000000000 ) ) ;
#213 = CARTESIAN_POINT ( 'NONE',  ( 0.0000000000000000000, 0.0000000000000000000, 0.0000000000000000000 ) ) ;
#214 = CC_DESIGN_SECURITY_CLASSIFICATION ( #94, ( #183 ) ) ;
#215 = DIRECTION ( 'NONE',  ( 3.491481338843133355E-15, -1.224646799147353207E-16, 1.000000000000000000 ) ) ;
#216 = FACE_OUTER_BOUND ( 'NONE', #173, .T. ) ;
#217 = DATE_AND_TIME ( #219, #4 ) ;
#218 = AXIS2_PLACEMENT_3D ( 'NONE', #136, #215, #6 ) ;
#219 = CALENDAR_DATE ( 2021, 8, 10 ) ;
#220 = VERTEX_POINT ( 'NONE', #103 ) ;
#221 = VERTEX_POINT ( 'NONE', #51 ) ;
#222 = AXIS2_PLACEMENT_3D ( 'NONE', #135, #98, #197 ) ;
#223 = APPROVAL_DATE_TIME ( #90, #72 ) ;
ENDSEC;
END-ISO-10303-21;
