ISO-10303-21;
HEADER;
FILE_DESCRIPTION (( 'STEP AP203' ),
    '1' );
FILE_NAME ('55330.step',
    '2021-10-08T05:14:39',
    ( '' ),
    ( '' ),
    'SwSTEP 2.0',
    'SolidWorks 2019',
    '' );
FILE_SCHEMA (( 'CONFIG_CONTROL_DESIGN' ));
ENDSEC;

DATA;
#1 = APPLICATION_PROTOCOL_DEFINITION ( 'international standard', 'config_control_design', 1994, #4 ) ;
#2 = APPROVAL_ROLE ( '' ) ;
#3 = CIRCLE ( 'NONE', #83, 0.3899999999999987366 ) ;
#4 = APPLICATION_CONTEXT ( 'configuration controlled 3d designs of mechanical parts and assemblies' ) ;
#5 = ADVANCED_FACE ( 'NONE', ( #157 ), #101, .T. ) ;
#6 = CONICAL_SURFACE ( 'NONE', #187, 0.4999999999999971689, 0.2617993877991437457 ) ;
#7 = EDGE_LOOP ( 'NONE', ( #184 ) ) ;
#8 = ORIENTED_EDGE ( 'NONE', *, *, #170, .F. ) ;
#9 = EDGE_LOOP ( 'NONE', ( #32 ) ) ;
#10 = FACE_BOUND ( 'NONE', #9, .T. ) ;
#11 = DIRECTION ( 'NONE',  ( 1.000000000000000000, 0.0000000000000000000, 0.0000000000000000000 ) ) ;
#12 = DIRECTION ( 'NONE',  ( 0.0000000000000000000, 1.000000000000000000, 0.0000000000000000000 ) ) ;
#13 = EDGE_LOOP ( 'NONE', ( #222 ) ) ;
#14 = FACE_OUTER_BOUND ( 'NONE', #74, .T. ) ;
#15 = DIRECTION ( 'NONE',  ( -3.491481338843133355E-15, 1.224646799147353207E-16, -1.000000000000000000 ) ) ;
#16 = EDGE_CURVE ( 'NONE', #20, #20, #196, .T. ) ;
#17 =( GEOMETRIC_REPRESENTATION_CONTEXT ( 3 ) GLOBAL_UNCERTAINTY_ASSIGNED_CONTEXT ( ( #82 ) ) GLOBAL_UNIT_ASSIGNED_CONTEXT ( ( #75, #91, #128 ) ) REPRESENTATION_CONTEXT ( 'NONE', 'WORKASPACE' ) );
#18 = CARTESIAN_POINT ( 'NONE',  ( 0.0000000000000000000, 0.0000000000000000000, 0.0000000000000000000 ) ) ;
#19 = CC_DESIGN_PERSON_AND_ORGANIZATION_ASSIGNMENT ( #151, #121, ( #143 ) ) ;
#20 = VERTEX_POINT ( 'NONE', #125 ) ;
#21 = EDGE_LOOP ( 'NONE', ( #38 ) ) ;
#22 = APPROVAL ( #114, 'UNSPECIFIED' ) ;
#23 = AXIS2_PLACEMENT_3D ( 'NONE', #133, #132, #179 ) ;
#24 = EDGE_LOOP ( 'NONE', ( #172 ) ) ;
#25 = ORIENTED_EDGE ( 'NONE', *, *, #195, .T. ) ;
#26 = AXIS2_PLACEMENT_3D ( 'NONE', #219, #71, #49 ) ;
#27 = PLANE ( 'NONE',  #216 ) ;
#28 = CARTESIAN_POINT ( 'NONE',  ( 1.047444401652940007E-13, 0.3999999999999953038, 30.00000000000000000 ) ) ;
#29 = DIRECTION ( 'NONE',  ( 0.0000000000000000000, 1.000000000000000000, 0.0000000000000000000 ) ) ;
#30 = PERSON_AND_ORGANIZATION ( #42, #96 ) ;
#31 = DIRECTION ( 'NONE',  ( 0.0000000000000000000, 1.000000000000000000, 0.0000000000000000000 ) ) ;
#32 = ORIENTED_EDGE ( 'NONE', *, *, #170, .T. ) ;
#33 = CC_DESIGN_DATE_AND_TIME_ASSIGNMENT ( #89, #194, ( #189 ) ) ;
#34 = COORDINATED_UNIVERSAL_TIME_OFFSET ( 1, 0, .AHEAD. ) ;
#35 = DIRECTION ( 'NONE',  ( -4.938281908685241784E-31, -1.000000000000000000, -1.390002785237832291E-16 ) ) ;
#36 = DIRECTION ( 'NONE',  ( 4.275831445896958607E-31, 1.000000000000000000, 1.224646799147353207E-16 ) ) ;
#37 = CC_DESIGN_APPROVAL ( #177, ( #189 ) ) ;
#38 = ORIENTED_EDGE ( 'NONE', *, *, #173, .T. ) ;
#39 = PRODUCT_RELATED_PRODUCT_CATEGORY ( 'detail', '', ( #46 ) ) ;
#40 = PERSON_AND_ORGANIZATION_ROLE ( 'creator' ) ;
#41 = LOCAL_TIME ( 7, 14, 39.00000000000000000, #162 ) ;
#42 = PERSON ( 'UNSPECIFIED', 'UNSPECIFIED', 'UNSPECIFIED', ('UNSPECIFIED'), ('UNSPECIFIED'), ('UNSPECIFIED') ) ;
#43 = FACE_OUTER_BOUND ( 'NONE', #21, .T. ) ;
#44 = APPROVAL_ROLE ( '' ) ;
#45 = FACE_OUTER_BOUND ( 'NONE', #7, .T. ) ;
#46 = PRODUCT ( '55330', '55330', '', ( #129 ) ) ;
#47 = CYLINDRICAL_SURFACE ( 'NONE', #105, 0.4999999999999981681 ) ;
#48 = ADVANCED_FACE ( 'NONE', ( #45, #10 ), #99, .T. ) ;
#49 = DIRECTION ( 'NONE',  ( -4.275831445896958607E-31, -1.000000000000000000, -1.224646799147353207E-16 ) ) ;
#50 = PERSON_AND_ORGANIZATION ( #42, #96 ) ;
#51 = DIRECTION ( 'NONE',  ( -3.491481338843133355E-15, 1.224646799147353207E-16, -1.000000000000000000 ) ) ;
#52 = LOCAL_TIME ( 7, 14, 39.00000000000000000, #204 ) ;
#53 = ADVANCED_FACE ( 'NONE', ( #63 ), #79, .F. ) ;
#54 = VERTEX_POINT ( 'NONE', #152 ) ;
#55 = CLOSED_SHELL ( 'NONE', ( #5, #202, #104 ) ) ;
#56 = AXIS2_PLACEMENT_3D ( 'NONE', #18, #70, #223 ) ;
#57 = EDGE_LOOP ( 'NONE', ( #95 ) ) ;
#58 = APPLICATION_PROTOCOL_DEFINITION ( 'international standard', 'config_control_design', 1994, #215 ) ;
#59 = PERSON_AND_ORGANIZATION ( #42, #96 ) ;
#60 = CC_DESIGN_APPROVAL ( #123, ( #160 ) ) ;
#61 = CC_DESIGN_APPROVAL ( #22, ( #143 ) ) ;
#62 = DATE_AND_TIME ( #158, #52 ) ;
#63 = FACE_OUTER_BOUND ( 'NONE', #77, .T. ) ;
#64 = CARTESIAN_POINT ( 'NONE',  ( 8.181785190463849867E-16, 0.3899999999999982370, 0.2343356414207501126 ) ) ;
#65 = ORIENTED_EDGE ( 'NONE', *, *, #16, .F. ) ;
#66 = APPROVAL_ROLE ( '' ) ;
#67 = CARTESIAN_POINT ( 'NONE',  ( 1.047444401652940007E-13, -3.673940397442059178E-15, 30.00000000000000000 ) ) ;
#68 = PERSON_AND_ORGANIZATION ( #42, #96 ) ;
#69 = DIRECTION ( 'NONE',  ( 3.491481338843133355E-15, -1.224646799147353207E-16, 1.000000000000000000 ) ) ;
#70 = DIRECTION ( 'NONE',  ( -3.491481338843133355E-15, 1.224646799147353207E-16, -1.000000000000000000 ) ) ;
#71 = DIRECTION ( 'NONE',  ( 3.491481338843133355E-15, -1.224646799147353207E-16, 1.000000000000000000 ) ) ;
#72 = AXIS2_PLACEMENT_3D ( 'NONE', #145, #103, #11 ) ;
#73 = CC_DESIGN_PERSON_AND_ORGANIZATION_ASSIGNMENT ( #68, #117, ( #46 ) ) ;
#74 = EDGE_LOOP ( 'NONE', ( #218 ) ) ;
#75 =( LENGTH_UNIT ( ) NAMED_UNIT ( * ) SI_UNIT ( .MILLI., .METRE. ) );
#76 = DATE_TIME_ROLE ( 'classification_date' ) ;
#77 = EDGE_LOOP ( 'NONE', ( #127 ) ) ;
#78 = FACE_OUTER_BOUND ( 'NONE', #80, .T. ) ;
#79 = PLANE ( 'NONE',  #26 ) ;
#80 = EDGE_LOOP ( 'NONE', ( #65 ) ) ;
#81 = MANIFOLD_SOLID_BREP ( 'Corps-Déplacer/Copier1[1]', #155 ) ;
#82 = UNCERTAINTY_MEASURE_WITH_UNIT (LENGTH_MEASURE( 1.000000000000000082E-05 ), #75, 'distance_accuracy_value', 'NONE');
#83 = AXIS2_PLACEMENT_3D ( 'NONE', #207, #135, #29 ) ;
#84 = LOCAL_TIME ( 7, 14, 39.00000000000000000, #34 ) ;
#85 = DATE_AND_TIME ( #178, #84 ) ;
#86 = CARTESIAN_POINT ( 'NONE',  ( 1.043952920314096936E-13, -3.661693929450586610E-15, 29.90000000000000213 ) ) ;
#87 = AXIS2_PLACEMENT_3D ( 'NONE', #116, #144, #150 ) ;
#88 = CARTESIAN_POINT ( 'NONE',  ( 1.043952920314096936E-13, 0.4999999999999954481, 29.90000000000000213 ) ) ;
#89 = DATE_AND_TIME ( #220, #102 ) ;
#90 = CC_DESIGN_PERSON_AND_ORGANIZATION_ASSIGNMENT ( #59, #130, ( #143 ) ) ;
#91 =( NAMED_UNIT ( * ) PLANE_ANGLE_UNIT ( ) SI_UNIT ( $, .RADIAN. ) );
#92 = CARTESIAN_POINT ( 'NONE',  ( 1.047444401652940007E-13, 2.999519565323652267E-33, 30.00000000000000000 ) ) ;
#93 = DIRECTION ( 'NONE',  ( -3.491481338843133355E-15, 1.224646799147353207E-16, -1.000000000000000000 ) ) ;
#94 = APPROVAL_STATUS ( 'not_yet_approved' ) ;
#95 = ORIENTED_EDGE ( 'NONE', *, *, #119, .T. ) ;
#96 = ORGANIZATION ( 'UNSPECIFIED', 'UNSPECIFIED', '' ) ;
#97 = DIRECTION ( 'NONE',  ( 4.275831445896958607E-31, 1.000000000000000000, 1.224646799147353207E-16 ) ) ;
#98 = CARTESIAN_POINT ( 'NONE',  ( 2.199633243471174014E-14, -7.715274834628325378E-16, 6.299999999999999822 ) ) ;
#99 = CONICAL_SURFACE ( 'NONE', #124, 0.3999999999999989675, 0.7853981633974694843 ) ;
#100 = DIRECTION ( 'NONE',  ( -3.491481338843133355E-15, 1.224646799147353207E-16, -1.000000000000000000 ) ) ;
#101 = CONICAL_SURFACE ( 'NONE', #211, 0.3899999999999982925, 1.029744258676649649 ) ;
#102 = LOCAL_TIME ( 7, 14, 39.00000000000000000, #208 ) ;
#103 = DIRECTION ( 'NONE',  ( 0.0000000000000000000, 0.0000000000000000000, 1.000000000000000000 ) ) ;
#104 = ADVANCED_FACE ( 'NONE', ( #78 ), #147, .T. ) ;
#105 = AXIS2_PLACEMENT_3D ( 'NONE', #159, #115, #97 ) ;
#106 = DATE_AND_TIME ( #210, #141 ) ;
#107 = EDGE_LOOP ( 'NONE', ( #8 ) ) ;
#108 = AXIS2_PLACEMENT_3D ( 'NONE', #98, #217, #12 ) ;
#109 = CIRCLE ( 'NONE', #139, 0.4999999999999971689 ) ;
#110 = DIRECTION ( 'NONE',  ( -3.491481338843133355E-15, 1.224646799147353207E-16, -1.000000000000000000 ) ) ;
#111 = DIRECTION ( 'NONE',  ( 0.0000000000000000000, -1.000000000000000000, 0.0000000000000000000 ) ) ;
#112 = APPROVAL_DATE_TIME ( #175, #22 ) ;
#113 = ADVANCED_BREP_SHAPE_REPRESENTATION ( '55330', ( #81, #165, #72 ), #17 ) ;
#114 = APPROVAL_STATUS ( 'not_yet_approved' ) ;
#115 = DIRECTION ( 'NONE',  ( -3.491481338843133355E-15, 1.224646799147353207E-16, -1.000000000000000000 ) ) ;
#116 = CARTESIAN_POINT ( 'NONE',  ( 1.047444401652940007E-13, -3.673940397442059178E-15, 30.00000000000000000 ) ) ;
#117 = PERSON_AND_ORGANIZATION_ROLE ( 'design_owner' ) ;
#118 = ORIENTED_EDGE ( 'NONE', *, *, #173, .F. ) ;
#119 = EDGE_CURVE ( 'NONE', #137, #137, #174, .T. ) ;
#120 = DIRECTION ( 'NONE',  ( 4.938281908685241784E-31, 1.000000000000000000, 1.390002785237832291E-16 ) ) ;
#121 = PERSON_AND_ORGANIZATION_ROLE ( 'creator' ) ;
#122 = CIRCLE ( 'NONE', #203, 0.3899999999999982925 ) ;
#123 = APPROVAL ( #94, 'UNSPECIFIED' ) ;
#124 = AXIS2_PLACEMENT_3D ( 'NONE', #67, #15, #31 ) ;
#125 = CARTESIAN_POINT ( 'NONE',  ( 2.199633243471174014E-14, 0.3899999999999980149, 6.299999999999999822 ) ) ;
#126 = PERSON_AND_ORGANIZATION ( #42, #96 ) ;
#127 = ORIENTED_EDGE ( 'NONE', *, *, #156, .T. ) ;
#128 =( NAMED_UNIT ( * ) SI_UNIT ( $, .STERADIAN. ) SOLID_ANGLE_UNIT ( ) );
#129 = MECHANICAL_CONTEXT ( 'NONE', #215, 'mechanical' ) ;
#130 = PERSON_AND_ORGANIZATION_ROLE ( 'design_supplier' ) ;
#131 = ADVANCED_FACE ( 'NONE', ( #134, #161 ), #47, .T. ) ;
#132 = DIRECTION ( 'NONE',  ( 3.491481338843133355E-15, -1.224646799147353207E-16, 1.000000000000000000 ) ) ;
#133 = CARTESIAN_POINT ( 'NONE',  ( 2.199633243471174014E-14, 2.924531576190601603E-33, 6.299999999999999822 ) ) ;
#134 = FACE_OUTER_BOUND ( 'NONE', #197, .T. ) ;
#135 = DIRECTION ( 'NONE',  ( -3.491481338843133355E-15, 1.224646799147353207E-16, -1.000000000000000000 ) ) ;
#136 = DIRECTION ( 'NONE',  ( 3.491481338843133355E-15, -1.224646799147353207E-16, 1.000000000000000000 ) ) ;
#137 = VERTEX_POINT ( 'NONE', #88 ) ;
#138 = ADVANCED_FACE ( 'NONE', ( #163, #43 ), #6, .T. ) ;
#139 = AXIS2_PLACEMENT_3D ( 'NONE', #181, #110, #205 ) ;
#140 = APPROVAL_STATUS ( 'not_yet_approved' ) ;
#141 = LOCAL_TIME ( 7, 14, 39.00000000000000000, #171 ) ;
#142 = EDGE_LOOP ( 'NONE', ( #25 ) ) ;
#143 = PRODUCT_DEFINITION_FORMATION_WITH_SPECIFIED_SOURCE ( 'ANY', '', #46, .NOT_KNOWN. ) ;
#144 = DIRECTION ( 'NONE',  ( -3.491481338843133355E-15, 1.224646799147353207E-16, -1.000000000000000000 ) ) ;
#145 = CARTESIAN_POINT ( 'NONE',  ( 0.0000000000000000000, 0.0000000000000000000, 0.0000000000000000000 ) ) ;
#146 = APPROVAL_DATE_TIME ( #62, #123 ) ;
#147 = PLANE ( 'NONE',  #23 ) ;
#148 = CC_DESIGN_PERSON_AND_ORGANIZATION_ASSIGNMENT ( #126, #40, ( #189 ) ) ;
#149 = CYLINDRICAL_SURFACE ( 'NONE', #56, 0.3899999999999985145 ) ;
#150 = DIRECTION ( 'NONE',  ( 0.0000000000000000000, 1.000000000000000000, 0.0000000000000000000 ) ) ;
#151 = PERSON_AND_ORGANIZATION ( #42, #96 ) ;
#152 = CARTESIAN_POINT ( 'NONE',  ( 2.199633243471174014E-14, 0.3899999999999980149, 6.299999999999999822 ) ) ;
#153 = CC_DESIGN_SECURITY_CLASSIFICATION ( #160, ( #143 ) ) ;
#154 = APPROVAL_DATE_TIME ( #106, #177 ) ;
#155 = CLOSED_SHELL ( 'NONE', ( #53, #138, #131, #48, #192 ) ) ;
#156 = EDGE_CURVE ( 'NONE', #54, #54, #3, .T. ) ;
#157 = FACE_OUTER_BOUND ( 'NONE', #142, .T. ) ;
#158 = CALENDAR_DATE ( 2021, 8, 10 ) ;
#159 = CARTESIAN_POINT ( 'NONE',  ( 0.0000000000000000000, 0.0000000000000000000, 0.0000000000000000000 ) ) ;
#160 = SECURITY_CLASSIFICATION ( '', '', #168 ) ;
#161 = FACE_OUTER_BOUND ( 'NONE', #57, .T. ) ;
#162 = COORDINATED_UNIVERSAL_TIME_OFFSET ( 1, 0, .AHEAD. ) ;
#163 = FACE_BOUND ( 'NONE', #13, .T. ) ;
#164 = DESIGN_CONTEXT ( 'detailed design', #4, 'design' ) ;
#165 = MANIFOLD_SOLID_BREP ( 'Corps-Déplacer/Copier1[2]', #55 ) ;
#166 = DIRECTION ( 'NONE',  ( 0.0000000000000000000, 1.000000000000000000, 0.0000000000000000000 ) ) ;
#167 = CARTESIAN_POINT ( 'NONE',  ( 8.181785190463847895E-16, -2.869783931920634932E-17, 0.2343356414207500571 ) ) ;
#168 = SECURITY_CLASSIFICATION_LEVEL ( 'unclassified' ) ;
#169 = VERTEX_POINT ( 'NONE', #64 ) ;
#170 = EDGE_CURVE ( 'NONE', #191, #191, #209, .T. ) ;
#171 = COORDINATED_UNIVERSAL_TIME_OFFSET ( 1, 0, .AHEAD. ) ;
#172 = ORIENTED_EDGE ( 'NONE', *, *, #195, .F. ) ;
#173 = EDGE_CURVE ( 'NONE', #193, #193, #109, .T. ) ;
#174 = CIRCLE ( 'NONE', #190, 0.4999999999999991673 ) ;
#175 = DATE_AND_TIME ( #213, #41 ) ;
#176 = FACE_OUTER_BOUND ( 'NONE', #107, .T. ) ;
#177 = APPROVAL ( #140, 'UNSPECIFIED' ) ;
#178 = CALENDAR_DATE ( 2021, 8, 10 ) ;
#179 = DIRECTION ( 'NONE',  ( -4.275831445896958607E-31, -1.000000000000000000, -1.224646799147353207E-16 ) ) ;
#180 = PERSON_AND_ORGANIZATION ( #42, #96 ) ;
#181 = CARTESIAN_POINT ( 'NONE',  ( 2.342967486723828421E-14, -8.218023682960227072E-16, 6.710525588832579658 ) ) ;
#182 = APPROVAL_PERSON_ORGANIZATION ( #50, #22, #66 ) ;
#183 = PERSON_AND_ORGANIZATION_ROLE ( 'classification_officer' ) ;
#184 = ORIENTED_EDGE ( 'NONE', *, *, #119, .F. ) ;
#185 = FACE_OUTER_BOUND ( 'NONE', #24, .T. ) ;
#186 = APPROVAL_PERSON_ORGANIZATION ( #180, #123, #44 ) ;
#187 = AXIS2_PLACEMENT_3D ( 'NONE', #221, #69, #111 ) ;
#188 = PERSON_AND_ORGANIZATION ( #42, #96 ) ;
#189 = PRODUCT_DEFINITION ( 'UNKNOWN', '', #143, #164 ) ;
#190 = AXIS2_PLACEMENT_3D ( 'NONE', #86, #93, #166 ) ;
#191 = VERTEX_POINT ( 'NONE', #28 ) ;
#192 = ADVANCED_FACE ( 'NONE', ( #176 ), #27, .F. ) ;
#193 = VERTEX_POINT ( 'NONE', #198 ) ;
#194 = DATE_TIME_ROLE ( 'creation_date' ) ;
#195 = EDGE_CURVE ( 'NONE', #169, #169, #122, .T. ) ;
#196 = CIRCLE ( 'NONE', #108, 0.3899999999999987366 ) ;
#197 = EDGE_LOOP ( 'NONE', ( #118 ) ) ;
#198 = CARTESIAN_POINT ( 'NONE',  ( 2.342967486723828421E-14, 0.4999999999999963363, 6.710525588832579658 ) ) ;
#199 = CARTESIAN_POINT ( 'NONE',  ( 8.181785190463847895E-16, -2.869783931920634932E-17, 0.2343356414207500571 ) ) ;
#200 = CC_DESIGN_DATE_AND_TIME_ASSIGNMENT ( #85, #76, ( #160 ) ) ;
#201 = PRODUCT_DEFINITION_SHAPE ( 'NONE', 'NONE',  #189 ) ;
#202 = ADVANCED_FACE ( 'NONE', ( #185, #14 ), #149, .T. ) ;
#203 = AXIS2_PLACEMENT_3D ( 'NONE', #167, #51, #120 ) ;
#204 = COORDINATED_UNIVERSAL_TIME_OFFSET ( 1, 0, .AHEAD. ) ;
#205 = DIRECTION ( 'NONE',  ( 0.0000000000000000000, 1.000000000000000000, 0.0000000000000000000 ) ) ;
#206 = SHAPE_DEFINITION_REPRESENTATION ( #201, #113 ) ;
#207 = CARTESIAN_POINT ( 'NONE',  ( 2.199633243471174014E-14, -7.715274834628325378E-16, 6.299999999999999822 ) ) ;
#208 = COORDINATED_UNIVERSAL_TIME_OFFSET ( 1, 0, .AHEAD. ) ;
#209 = CIRCLE ( 'NONE', #87, 0.3999999999999989675 ) ;
#210 = CALENDAR_DATE ( 2021, 8, 10 ) ;
#211 = AXIS2_PLACEMENT_3D ( 'NONE', #199, #136, #35 ) ;
#212 = APPROVAL_PERSON_ORGANIZATION ( #188, #177, #2 ) ;
#213 = CALENDAR_DATE ( 2021, 8, 10 ) ;
#214 = CC_DESIGN_PERSON_AND_ORGANIZATION_ASSIGNMENT ( #30, #183, ( #160 ) ) ;
#215 = APPLICATION_CONTEXT ( 'configuration controlled 3d designs of mechanical parts and assemblies' ) ;
#216 = AXIS2_PLACEMENT_3D ( 'NONE', #92, #100, #36 ) ;
#217 = DIRECTION ( 'NONE',  ( -3.491481338843133355E-15, 1.224646799147353207E-16, -1.000000000000000000 ) ) ;
#218 = ORIENTED_EDGE ( 'NONE', *, *, #16, .T. ) ;
#219 = CARTESIAN_POINT ( 'NONE',  ( 2.199633243471174014E-14, 2.924531576190601603E-33, 6.299999999999999822 ) ) ;
#220 = CALENDAR_DATE ( 2021, 8, 10 ) ;
#221 = CARTESIAN_POINT ( 'NONE',  ( 2.342967486723828421E-14, -8.218023682960227072E-16, 6.710525588832579658 ) ) ;
#222 = ORIENTED_EDGE ( 'NONE', *, *, #156, .F. ) ;
#223 = DIRECTION ( 'NONE',  ( 4.275831445896959482E-31, 1.000000000000000000, 1.224646799147353207E-16 ) ) ;
ENDSEC;
END-ISO-10303-21;
