ISO-10303-21;
HEADER;
FILE_DESCRIPTION (( 'STEP AP203' ),
    '1' );
FILE_NAME ('55329.step',
    '2021-10-08T05:14:38',
    ( '' ),
    ( '' ),
    'SwSTEP 2.0',
    'SolidWorks 2019',
    '' );
FILE_SCHEMA (( 'CONFIG_CONTROL_DESIGN' ));
ENDSEC;

DATA;
#1 = CC_DESIGN_PERSON_AND_ORGANIZATION_ASSIGNMENT ( #44, #217, ( #16 ) ) ;
#2 = EDGE_LOOP ( 'NONE', ( #58 ) ) ;
#3 = PRODUCT_DEFINITION_SHAPE ( 'NONE', 'NONE',  #82 ) ;
#4 = AXIS2_PLACEMENT_3D ( 'NONE', #32, #5, #72 ) ;
#5 = DIRECTION ( 'NONE',  ( -3.491481338843133355E-15, 1.224646799147353207E-16, -1.000000000000000000 ) ) ;
#6 = DIRECTION ( 'NONE',  ( -3.491481338843133355E-15, 1.224646799147353207E-16, -1.000000000000000000 ) ) ;
#7 = ADVANCED_FACE ( 'NONE', ( #95, #114 ), #38, .T. ) ;
#8 = CALENDAR_DATE ( 2021, 8, 10 ) ;
#9 = FACE_OUTER_BOUND ( 'NONE', #109, .T. ) ;
#10 = MECHANICAL_CONTEXT ( 'NONE', #21, 'mechanical' ) ;
#11 = DIRECTION ( 'NONE',  ( 3.491481338843133355E-15, -1.224646799147353207E-16, 1.000000000000000000 ) ) ;
#12 = CARTESIAN_POINT ( 'NONE',  ( 2.199633243471174014E-14, 0.3849999999999979550, 6.299999999999999822 ) ) ;
#13 = SECURITY_CLASSIFICATION_LEVEL ( 'unclassified' ) ;
#14 = DIRECTION ( 'NONE',  ( 4.275831445896958607E-31, 1.000000000000000000, 1.224646799147353207E-16 ) ) ;
#15 = PERSON_AND_ORGANIZATION ( #31, #211 ) ;
#16 = PRODUCT_DEFINITION_FORMATION_WITH_SPECIFIED_SOURCE ( 'ANY', '', #190, .NOT_KNOWN. ) ;
#17 = VERTEX_POINT ( 'NONE', #192 ) ;
#18 = EDGE_CURVE ( 'NONE', #102, #102, #108, .T. ) ;
#19 = VERTEX_POINT ( 'NONE', #89 ) ;
#20 = CC_DESIGN_APPROVAL ( #104, ( #82 ) ) ;
#21 = APPLICATION_CONTEXT ( 'configuration controlled 3d designs of mechanical parts and assemblies' ) ;
#22 = ORIENTED_EDGE ( 'NONE', *, *, #133, .F. ) ;
#23 =( NAMED_UNIT ( * ) PLANE_ANGLE_UNIT ( ) SI_UNIT ( $, .RADIAN. ) );
#24 = CONICAL_SURFACE ( 'NONE', #71, 0.3849999999999982880, 1.029744258676649649 ) ;
#25 = CARTESIAN_POINT ( 'NONE',  ( 2.199633243471174014E-14, 2.887037581624054889E-33, 6.299999999999999822 ) ) ;
#26 = DIRECTION ( 'NONE',  ( -3.491481338843133355E-15, 1.224646799147353207E-16, -1.000000000000000000 ) ) ;
#27 = DIRECTION ( 'NONE',  ( -4.275831445896958607E-31, -1.000000000000000000, -1.224646799147353207E-16 ) ) ;
#28 = PERSON_AND_ORGANIZATION ( #31, #211 ) ;
#29 = DIRECTION ( 'NONE',  ( 3.491481338843133355E-15, -1.224646799147353207E-16, 1.000000000000000000 ) ) ;
#30 = APPROVAL_ROLE ( '' ) ;
#31 = PERSON ( 'UNSPECIFIED', 'UNSPECIFIED', 'UNSPECIFIED', ('UNSPECIFIED'), ('UNSPECIFIED'), ('UNSPECIFIED') ) ;
#32 = CARTESIAN_POINT ( 'NONE',  ( 2.349482679598948933E-14, -8.240875903338950279E-16, 6.729185842870425205 ) ) ;
#33 = PERSON_AND_ORGANIZATION ( #31, #211 ) ;
#34 = DIRECTION ( 'NONE',  ( 0.0000000000000000000, 1.000000000000000000, 0.0000000000000000000 ) ) ;
#35 = APPROVAL_PERSON_ORGANIZATION ( #143, #197, #30 ) ;
#36 = AXIS2_PLACEMENT_3D ( 'NONE', #154, #63, #132 ) ;
#37 = EDGE_LOOP ( 'NONE', ( #99 ) ) ;
#38 = CONICAL_SURFACE ( 'NONE', #130, 0.4999999999999971689, 0.2617993877991438012 ) ;
#39 = EDGE_CURVE ( 'NONE', #121, #121, #155, .T. ) ;
#40 = EDGE_LOOP ( 'NONE', ( #129 ) ) ;
#41 = ORIENTED_EDGE ( 'NONE', *, *, #208, .F. ) ;
#42 = CC_DESIGN_DATE_AND_TIME_ASSIGNMENT ( #199, #151, ( #82 ) ) ;
#43 = CARTESIAN_POINT ( 'NONE',  ( 8.076890508534825064E-16, -2.832991830229344891E-17, 0.2313313383256122568 ) ) ;
#44 = PERSON_AND_ORGANIZATION ( #31, #211 ) ;
#45 = UNCERTAINTY_MEASURE_WITH_UNIT (LENGTH_MEASURE( 1.000000000000000082E-05 ), #107, 'distance_accuracy_value', 'NONE');
#46 = CYLINDRICAL_SURFACE ( 'NONE', #221, 0.3849999999999985101 ) ;
#47 = FACE_OUTER_BOUND ( 'NONE', #193, .T. ) ;
#48 = AXIS2_PLACEMENT_3D ( 'NONE', #43, #149, #213 ) ;
#49 = COORDINATED_UNIVERSAL_TIME_OFFSET ( 1, 0, .AHEAD. ) ;
#50 = CIRCLE ( 'NONE', #146, 0.3849999999999987321 ) ;
#51 = PLANE ( 'NONE',  #128 ) ;
#52 = CARTESIAN_POINT ( 'NONE',  ( 2.199633243471174014E-14, 0.3849999999999979550, 6.299999999999999822 ) ) ;
#53 = PERSON_AND_ORGANIZATION_ROLE ( 'creator' ) ;
#54 = CC_DESIGN_APPROVAL ( #93, ( #126 ) ) ;
#55 = ADVANCED_FACE ( 'NONE', ( #181 ), #96, .T. ) ;
#56 = APPLICATION_CONTEXT ( 'configuration controlled 3d designs of mechanical parts and assemblies' ) ;
#57 = CC_DESIGN_PERSON_AND_ORGANIZATION_ASSIGNMENT ( #15, #98, ( #82 ) ) ;
#58 = ORIENTED_EDGE ( 'NONE', *, *, #91, .T. ) ;
#59 = ORIENTED_EDGE ( 'NONE', *, *, #214, .F. ) ;
#60 = AXIS2_PLACEMENT_3D ( 'NONE', #200, #84, #27 ) ;
#61 = LOCAL_TIME ( 7, 14, 38.00000000000000000, #103 ) ;
#62 = DESIGN_CONTEXT ( 'detailed design', #56, 'design' ) ;
#63 = DIRECTION ( 'NONE',  ( -3.491481338843133355E-15, 1.224646799147353207E-16, -1.000000000000000000 ) ) ;
#64 = APPLICATION_PROTOCOL_DEFINITION ( 'international standard', 'config_control_design', 1994, #56 ) ;
#65 = DIRECTION ( 'NONE',  ( -3.491481338843133355E-15, 1.224646799147353207E-16, -1.000000000000000000 ) ) ;
#66 = APPROVAL_DATE_TIME ( #87, #93 ) ;
#67 = CARTESIAN_POINT ( 'NONE',  ( 2.199633243471174014E-14, -7.715274834628325378E-16, 6.299999999999999822 ) ) ;
#68 = DATE_AND_TIME ( #85, #74 ) ;
#69 = DIRECTION ( 'NONE',  ( 4.275831445896958607E-31, 1.000000000000000000, 1.224646799147353207E-16 ) ) ;
#70 = APPROVAL_ROLE ( '' ) ;
#71 = AXIS2_PLACEMENT_3D ( 'NONE', #115, #29, #186 ) ;
#72 = DIRECTION ( 'NONE',  ( 0.0000000000000000000, 1.000000000000000000, 0.0000000000000000000 ) ) ;
#73 = ADVANCED_BREP_SHAPE_REPRESENTATION ( '55329', ( #170, #174, #90 ), #78 ) ;
#74 = LOCAL_TIME ( 7, 14, 38.00000000000000000, #187 ) ;
#75 = ORIENTED_EDGE ( 'NONE', *, *, #91, .F. ) ;
#76 = AXIS2_PLACEMENT_3D ( 'NONE', #152, #26, #69 ) ;
#77 = DIRECTION ( 'NONE',  ( -3.491481338843133355E-15, 1.224646799147353207E-16, -1.000000000000000000 ) ) ;
#78 =( GEOMETRIC_REPRESENTATION_CONTEXT ( 3 ) GLOBAL_UNCERTAINTY_ASSIGNED_CONTEXT ( ( #45 ) ) GLOBAL_UNIT_ASSIGNED_CONTEXT ( ( #107, #23, #92 ) ) REPRESENTATION_CONTEXT ( 'NONE', 'WORKASPACE' ) );
#79 = ORIENTED_EDGE ( 'NONE', *, *, #39, .F. ) ;
#80 = PERSON_AND_ORGANIZATION_ROLE ( 'classification_officer' ) ;
#81 = FACE_BOUND ( 'NONE', #40, .T. ) ;
#82 = PRODUCT_DEFINITION ( 'UNKNOWN', '', #16, #62 ) ;
#83 = COORDINATED_UNIVERSAL_TIME_OFFSET ( 1, 0, .AHEAD. ) ;
#84 = DIRECTION ( 'NONE',  ( 3.491481338843133355E-15, -1.224646799147353207E-16, 1.000000000000000000 ) ) ;
#85 = CALENDAR_DATE ( 2021, 8, 10 ) ;
#86 = ORIENTED_EDGE ( 'NONE', *, *, #18, .T. ) ;
#87 = DATE_AND_TIME ( #189, #61 ) ;
#88 = AXIS2_PLACEMENT_3D ( 'NONE', #25, #11, #198 ) ;
#89 = CARTESIAN_POINT ( 'NONE',  ( 2.349482679598948933E-14, 0.4999999999999963363, 6.729185842870425205 ) ) ;
#90 = AXIS2_PLACEMENT_3D ( 'NONE', #100, #113, #166 ) ;
#91 = EDGE_CURVE ( 'NONE', #188, #188, #50, .T. ) ;
#92 =( NAMED_UNIT ( * ) SI_UNIT ( $, .STERADIAN. ) SOLID_ANGLE_UNIT ( ) );
#93 = APPROVAL ( #215, 'UNSPECIFIED' ) ;
#94 = PLANE ( 'NONE',  #60 ) ;
#95 = FACE_BOUND ( 'NONE', #131, .T. ) ;
#96 = PLANE ( 'NONE',  #88 ) ;
#97 = ADVANCED_FACE ( 'NONE', ( #150, #180 ), #46, .T. ) ;
#98 = PERSON_AND_ORGANIZATION_ROLE ( 'creator' ) ;
#99 = ORIENTED_EDGE ( 'NONE', *, *, #18, .F. ) ;
#100 = CARTESIAN_POINT ( 'NONE',  ( 0.0000000000000000000, 0.0000000000000000000, 0.0000000000000000000 ) ) ;
#101 = PERSON_AND_ORGANIZATION ( #31, #211 ) ;
#102 = VERTEX_POINT ( 'NONE', #172 ) ;
#103 = COORDINATED_UNIVERSAL_TIME_OFFSET ( 1, 0, .AHEAD. ) ;
#104 = APPROVAL ( #141, 'UNSPECIFIED' ) ;
#105 = CIRCLE ( 'NONE', #4, 0.4999999999999971689 ) ;
#106 = LOCAL_TIME ( 7, 14, 38.00000000000000000, #220 ) ;
#107 =( LENGTH_UNIT ( ) NAMED_UNIT ( * ) SI_UNIT ( .MILLI., .METRE. ) );
#108 = CIRCLE ( 'NONE', #48, 0.3849999999999982880 ) ;
#109 = EDGE_LOOP ( 'NONE', ( #22 ) ) ;
#110 = ORIENTED_EDGE ( 'NONE', *, *, #133, .T. ) ;
#111 = EDGE_LOOP ( 'NONE', ( #41 ) ) ;
#112 = CARTESIAN_POINT ( 'NONE',  ( 2.199633243471174014E-14, -7.715274834628325378E-16, 6.299999999999999822 ) ) ;
#113 = DIRECTION ( 'NONE',  ( 0.0000000000000000000, 0.0000000000000000000, 1.000000000000000000 ) ) ;
#114 = FACE_OUTER_BOUND ( 'NONE', #196, .T. ) ;
#115 = CARTESIAN_POINT ( 'NONE',  ( 8.076890508534825064E-16, -2.832991830229344891E-17, 0.2313313383256122568 ) ) ;
#116 = CIRCLE ( 'NONE', #36, 0.4999999999999991673 ) ;
#117 = DATE_AND_TIME ( #206, #106 ) ;
#118 = DIRECTION ( 'NONE',  ( 4.275831445896958607E-31, 1.000000000000000000, 1.224646799147353207E-16 ) ) ;
#119 = DATE_AND_TIME ( #8, #207 ) ;
#120 = CC_DESIGN_PERSON_AND_ORGANIZATION_ASSIGNMENT ( #33, #80, ( #126 ) ) ;
#121 = VERTEX_POINT ( 'NONE', #52 ) ;
#122 = APPROVAL_ROLE ( '' ) ;
#123 = APPROVAL_PERSON_ORGANIZATION ( #223, #104, #70 ) ;
#124 = CC_DESIGN_DATE_AND_TIME_ASSIGNMENT ( #68, #204, ( #126 ) ) ;
#125 = ADVANCED_FACE ( 'NONE', ( #167 ), #94, .F. ) ;
#126 = SECURITY_CLASSIFICATION ( '', '', #13 ) ;
#127 = VERTEX_POINT ( 'NONE', #195 ) ;
#128 = AXIS2_PLACEMENT_3D ( 'NONE', #164, #142, #118 ) ;
#129 = ORIENTED_EDGE ( 'NONE', *, *, #214, .T. ) ;
#130 = AXIS2_PLACEMENT_3D ( 'NONE', #185, #169, #179 ) ;
#131 = EDGE_LOOP ( 'NONE', ( #75 ) ) ;
#132 = DIRECTION ( 'NONE',  ( 0.0000000000000000000, 1.000000000000000000, 0.0000000000000000000 ) ) ;
#133 = EDGE_CURVE ( 'NONE', #17, #17, #116, .T. ) ;
#134 = CALENDAR_DATE ( 2021, 8, 10 ) ;
#135 = DIRECTION ( 'NONE',  ( 0.0000000000000000000, 1.000000000000000000, 0.0000000000000000000 ) ) ;
#136 = APPROVAL_DATE_TIME ( #119, #104 ) ;
#137 = FACE_OUTER_BOUND ( 'NONE', #177, .T. ) ;
#138 = APPROVAL_STATUS ( 'not_yet_approved' ) ;
#139 = FACE_OUTER_BOUND ( 'NONE', #162, .T. ) ;
#140 = CIRCLE ( 'NONE', #191, 0.3999999999999989675 ) ;
#141 = APPROVAL_STATUS ( 'not_yet_approved' ) ;
#142 = DIRECTION ( 'NONE',  ( -3.491481338843133355E-15, 1.224646799147353207E-16, -1.000000000000000000 ) ) ;
#143 = PERSON_AND_ORGANIZATION ( #31, #211 ) ;
#144 = EDGE_LOOP ( 'NONE', ( #210 ) ) ;
#145 = ADVANCED_FACE ( 'NONE', ( #9, #81 ), #173, .T. ) ;
#146 = AXIS2_PLACEMENT_3D ( 'NONE', #112, #165, #203 ) ;
#147 = CARTESIAN_POINT ( 'NONE',  ( 0.0000000000000000000, 0.0000000000000000000, 0.0000000000000000000 ) ) ;
#148 = APPROVAL_DATE_TIME ( #117, #197 ) ;
#149 = DIRECTION ( 'NONE',  ( -3.491481338843133355E-15, 1.224646799147353207E-16, -1.000000000000000000 ) ) ;
#150 = FACE_OUTER_BOUND ( 'NONE', #37, .T. ) ;
#151 = DATE_TIME_ROLE ( 'creation_date' ) ;
#152 = CARTESIAN_POINT ( 'NONE',  ( 0.0000000000000000000, 0.0000000000000000000, 0.0000000000000000000 ) ) ;
#153 = PERSON_AND_ORGANIZATION ( #31, #211 ) ;
#154 = CARTESIAN_POINT ( 'NONE',  ( 1.043952920314096936E-13, -3.661693929450586610E-15, 29.90000000000000213 ) ) ;
#155 = CIRCLE ( 'NONE', #202, 0.3849999999999987321 ) ;
#156 = SHAPE_DEFINITION_REPRESENTATION ( #3, #73 ) ;
#157 = PRODUCT_RELATED_PRODUCT_CATEGORY ( 'detail', '', ( #190 ) ) ;
#158 = CLOSED_SHELL ( 'NONE', ( #125, #7, #161, #145, #176 ) ) ;
#159 = APPROVAL_PERSON_ORGANIZATION ( #101, #93, #122 ) ;
#160 = EDGE_LOOP ( 'NONE', ( #79 ) ) ;
#161 = ADVANCED_FACE ( 'NONE', ( #163, #137 ), #222, .T. ) ;
#162 = EDGE_LOOP ( 'NONE', ( #59 ) ) ;
#163 = FACE_OUTER_BOUND ( 'NONE', #111, .T. ) ;
#164 = CARTESIAN_POINT ( 'NONE',  ( 1.047444401652940007E-13, 2.999519565323652267E-33, 30.00000000000000000 ) ) ;
#165 = DIRECTION ( 'NONE',  ( -3.491481338843133355E-15, 1.224646799147353207E-16, -1.000000000000000000 ) ) ;
#166 = DIRECTION ( 'NONE',  ( 1.000000000000000000, 0.0000000000000000000, 0.0000000000000000000 ) ) ;
#167 = FACE_OUTER_BOUND ( 'NONE', #2, .T. ) ;
#168 = PERSON_AND_ORGANIZATION_ROLE ( 'design_owner' ) ;
#169 = DIRECTION ( 'NONE',  ( 3.491481338843133355E-15, -1.224646799147353207E-16, 1.000000000000000000 ) ) ;
#170 = MANIFOLD_SOLID_BREP ( 'Corps-Déplacer/Copier1[1]', #158 ) ;
#171 = CC_DESIGN_SECURITY_CLASSIFICATION ( #126, ( #16 ) ) ;
#172 = CARTESIAN_POINT ( 'NONE',  ( 8.076890508534827036E-16, 0.3849999999999982325, 0.2313313383256123124 ) ) ;
#173 = CONICAL_SURFACE ( 'NONE', #184, 0.3999999999999989675, 0.7853981633974694843 ) ;
#174 = MANIFOLD_SOLID_BREP ( 'Corps-Déplacer/Copier1[2]', #183 ) ;
#175 = ORIENTED_EDGE ( 'NONE', *, *, #208, .T. ) ;
#176 = ADVANCED_FACE ( 'NONE', ( #139 ), #51, .F. ) ;
#177 = EDGE_LOOP ( 'NONE', ( #110 ) ) ;
#178 = CC_DESIGN_APPROVAL ( #197, ( #16 ) ) ;
#179 = DIRECTION ( 'NONE',  ( 0.0000000000000000000, -1.000000000000000000, 0.0000000000000000000 ) ) ;
#180 = FACE_OUTER_BOUND ( 'NONE', #144, .T. ) ;
#181 = FACE_OUTER_BOUND ( 'NONE', #160, .T. ) ;
#182 = APPLICATION_PROTOCOL_DEFINITION ( 'international standard', 'config_control_design', 1994, #21 ) ;
#183 = CLOSED_SHELL ( 'NONE', ( #201, #97, #55 ) ) ;
#184 = AXIS2_PLACEMENT_3D ( 'NONE', #218, #6, #216 ) ;
#185 = CARTESIAN_POINT ( 'NONE',  ( 2.349482679598948933E-14, -8.240875903338950279E-16, 6.729185842870425205 ) ) ;
#186 = DIRECTION ( 'NONE',  ( -5.002415439966868688E-31, -1.000000000000000000, -1.408054769461700352E-16 ) ) ;
#187 = COORDINATED_UNIVERSAL_TIME_OFFSET ( 1, 0, .AHEAD. ) ;
#188 = VERTEX_POINT ( 'NONE', #12 ) ;
#189 = CALENDAR_DATE ( 2021, 8, 10 ) ;
#190 = PRODUCT ( '55329', '55329', '', ( #10 ) ) ;
#191 = AXIS2_PLACEMENT_3D ( 'NONE', #205, #212, #34 ) ;
#192 = CARTESIAN_POINT ( 'NONE',  ( 1.043952920314096936E-13, 0.4999999999999954481, 29.90000000000000213 ) ) ;
#193 = EDGE_LOOP ( 'NONE', ( #86 ) ) ;
#194 = CC_DESIGN_PERSON_AND_ORGANIZATION_ASSIGNMENT ( #28, #168, ( #190 ) ) ;
#195 = CARTESIAN_POINT ( 'NONE',  ( 1.047444401652940007E-13, 0.3999999999999953038, 30.00000000000000000 ) ) ;
#196 = EDGE_LOOP ( 'NONE', ( #175 ) ) ;
#197 = APPROVAL ( #138, 'UNSPECIFIED' ) ;
#198 = DIRECTION ( 'NONE',  ( -4.275831445896958607E-31, -1.000000000000000000, -1.224646799147353207E-16 ) ) ;
#199 = DATE_AND_TIME ( #134, #219 ) ;
#200 = CARTESIAN_POINT ( 'NONE',  ( 2.199633243471174014E-14, 2.887037581624054889E-33, 6.299999999999999822 ) ) ;
#201 = ADVANCED_FACE ( 'NONE', ( #47 ), #24, .T. ) ;
#202 = AXIS2_PLACEMENT_3D ( 'NONE', #67, #77, #135 ) ;
#203 = DIRECTION ( 'NONE',  ( 0.0000000000000000000, 1.000000000000000000, 0.0000000000000000000 ) ) ;
#204 = DATE_TIME_ROLE ( 'classification_date' ) ;
#205 = CARTESIAN_POINT ( 'NONE',  ( 1.047444401652940007E-13, -3.673940397442059178E-15, 30.00000000000000000 ) ) ;
#206 = CALENDAR_DATE ( 2021, 8, 10 ) ;
#207 = LOCAL_TIME ( 7, 14, 38.00000000000000000, #49 ) ;
#208 = EDGE_CURVE ( 'NONE', #19, #19, #105, .T. ) ;
#209 = CC_DESIGN_PERSON_AND_ORGANIZATION_ASSIGNMENT ( #153, #53, ( #16 ) ) ;
#210 = ORIENTED_EDGE ( 'NONE', *, *, #39, .T. ) ;
#211 = ORGANIZATION ( 'UNSPECIFIED', 'UNSPECIFIED', '' ) ;
#212 = DIRECTION ( 'NONE',  ( -3.491481338843133355E-15, 1.224646799147353207E-16, -1.000000000000000000 ) ) ;
#213 = DIRECTION ( 'NONE',  ( 5.002415439966868688E-31, 1.000000000000000000, 1.408054769461700352E-16 ) ) ;
#214 = EDGE_CURVE ( 'NONE', #127, #127, #140, .T. ) ;
#215 = APPROVAL_STATUS ( 'not_yet_approved' ) ;
#216 = DIRECTION ( 'NONE',  ( 0.0000000000000000000, 1.000000000000000000, 0.0000000000000000000 ) ) ;
#217 = PERSON_AND_ORGANIZATION_ROLE ( 'design_supplier' ) ;
#218 = CARTESIAN_POINT ( 'NONE',  ( 1.047444401652940007E-13, -3.673940397442059178E-15, 30.00000000000000000 ) ) ;
#219 = LOCAL_TIME ( 7, 14, 38.00000000000000000, #83 ) ;
#220 = COORDINATED_UNIVERSAL_TIME_OFFSET ( 1, 0, .AHEAD. ) ;
#221 = AXIS2_PLACEMENT_3D ( 'NONE', #147, #65, #14 ) ;
#222 = CYLINDRICAL_SURFACE ( 'NONE', #76, 0.4999999999999981681 ) ;
#223 = PERSON_AND_ORGANIZATION ( #31, #211 ) ;
ENDSEC;
END-ISO-10303-21;
