ISO-10303-21;
HEADER;
FILE_DESCRIPTION (( 'STEP AP203' ),
    '1' );
FILE_NAME ('55328.step',
    '2021-10-08T05:14:38',
    ( '' ),
    ( '' ),
    'SwSTEP 2.0',
    'SolidWorks 2019',
    '' );
FILE_SCHEMA (( 'CONFIG_CONTROL_DESIGN' ));
ENDSEC;

DATA;
#1 = DIRECTION ( 'NONE',  ( 0.0000000000000000000, 1.000000000000000000, 0.0000000000000000000 ) ) ;
#2 = DIRECTION ( 'NONE',  ( -3.491481338843133355E-15, 1.224646799147353207E-16, -1.000000000000000000 ) ) ;
#3 = EDGE_LOOP ( 'NONE', ( #176 ) ) ;
#4 = EDGE_LOOP ( 'NONE', ( #70 ) ) ;
#5 = CARTESIAN_POINT ( 'NONE',  ( 1.047444401652940007E-13, -3.673940397442059178E-15, 30.00000000000000000 ) ) ;
#6 = VERTEX_POINT ( 'NONE', #132 ) ;
#7 = CARTESIAN_POINT ( 'NONE',  ( 2.355997872474070075E-14, 0.4999999999999963363, 6.747846096908270752 ) ) ;
#8 = CARTESIAN_POINT ( 'NONE',  ( 2.199633243471174014E-14, 0.3799999999999981726, 6.299999999999999822 ) ) ;
#9 = APPROVAL_PERSON_ORGANIZATION ( #118, #143, #79 ) ;
#10 = DIRECTION ( 'NONE',  ( -3.491481338843133355E-15, 1.224646799147353207E-16, -1.000000000000000000 ) ) ;
#11 = DATE_AND_TIME ( #114, #40 ) ;
#12 = APPROVAL_DATE_TIME ( #167, #160 ) ;
#13 = ADVANCED_FACE ( 'NONE', ( #23, #213 ), #38, .T. ) ;
#14 = AXIS2_PLACEMENT_3D ( 'NONE', #197, #144, #214 ) ;
#15 = CALENDAR_DATE ( 2021, 8, 10 ) ;
#16 = COORDINATED_UNIVERSAL_TIME_OFFSET ( 1, 0, .AHEAD. ) ;
#17 = LOCAL_TIME ( 7, 14, 38.00000000000000000, #151 ) ;
#18 = CARTESIAN_POINT ( 'NONE',  ( 2.199633243471174014E-14, 2.849543587057510228E-33, 6.299999999999999822 ) ) ;
#19 = UNCERTAINTY_MEASURE_WITH_UNIT (LENGTH_MEASURE( 1.000000000000000082E-05 ), #183, 'distance_accuracy_value', 'NONE');
#20 = CARTESIAN_POINT ( 'NONE',  ( 0.0000000000000000000, 0.0000000000000000000, 0.0000000000000000000 ) ) ;
#21 = ORGANIZATION ( 'UNSPECIFIED', 'UNSPECIFIED', '' ) ;
#22 = EDGE_LOOP ( 'NONE', ( #196 ) ) ;
#23 = FACE_OUTER_BOUND ( 'NONE', #22, .T. ) ;
#24 = FACE_OUTER_BOUND ( 'NONE', #154, .T. ) ;
#25 = PERSON ( 'UNSPECIFIED', 'UNSPECIFIED', 'UNSPECIFIED', ('UNSPECIFIED'), ('UNSPECIFIED'), ('UNSPECIFIED') ) ;
#26 = CARTESIAN_POINT ( 'NONE',  ( 2.199633243471174014E-14, -7.715274834628325378E-16, 6.299999999999999822 ) ) ;
#27 = DIRECTION ( 'NONE',  ( 0.0000000000000000000, 1.000000000000000000, 0.0000000000000000000 ) ) ;
#28 = ADVANCED_FACE ( 'NONE', ( #139 ), #54, .T. ) ;
#29 = DIRECTION ( 'NONE',  ( -3.491481338843133355E-15, 1.224646799147353207E-16, -1.000000000000000000 ) ) ;
#30 = APPROVAL_PERSON_ORGANIZATION ( #115, #160, #99 ) ;
#31 = APPROVAL_ROLE ( '' ) ;
#32 = SECURITY_CLASSIFICATION_LEVEL ( 'unclassified' ) ;
#33 = CONICAL_SURFACE ( 'NONE', #52, 0.4999999999999971689, 0.2617993877991429130 ) ;
#34 = AXIS2_PLACEMENT_3D ( 'NONE', #55, #127, #198 ) ;
#35 = APPROVAL_STATUS ( 'not_yet_approved' ) ;
#36 = PERSON_AND_ORGANIZATION_ROLE ( 'creator' ) ;
#37 = CONICAL_SURFACE ( 'NONE', #201, 0.3799999999999983391, 1.029744258676649649 ) ;
#38 = CYLINDRICAL_SURFACE ( 'NONE', #95, 0.3799999999999986167 ) ;
#39 = FACE_OUTER_BOUND ( 'NONE', #73, .T. ) ;
#40 = LOCAL_TIME ( 7, 14, 38.00000000000000000, #46 ) ;
#41 = DIRECTION ( 'NONE',  ( -4.275831445896958607E-31, -1.000000000000000000, -1.224646799147353207E-16 ) ) ;
#42 = VERTEX_POINT ( 'NONE', #146 ) ;
#43 = CLOSED_SHELL ( 'NONE', ( #212, #162, #107, #206, #147 ) ) ;
#44 = DIRECTION ( 'NONE',  ( 4.275831445896958607E-31, 1.000000000000000000, 1.224646799147353207E-16 ) ) ;
#45 = DIRECTION ( 'NONE',  ( -3.491481338843133355E-15, 1.224646799147353207E-16, -1.000000000000000000 ) ) ;
#46 = COORDINATED_UNIVERSAL_TIME_OFFSET ( 1, 0, .AHEAD. ) ;
#47 = PERSON_AND_ORGANIZATION ( #25, #21 ) ;
#48 =( GEOMETRIC_REPRESENTATION_CONTEXT ( 3 ) GLOBAL_UNCERTAINTY_ASSIGNED_CONTEXT ( ( #19 ) ) GLOBAL_UNIT_ASSIGNED_CONTEXT ( ( #183, #62, #219 ) ) REPRESENTATION_CONTEXT ( 'NONE', 'WORKASPACE' ) );
#49 = CALENDAR_DATE ( 2021, 8, 10 ) ;
#50 = ORIENTED_EDGE ( 'NONE', *, *, #59, .T. ) ;
#51 = EDGE_CURVE ( 'NONE', #94, #94, #180, .T. ) ;
#52 = AXIS2_PLACEMENT_3D ( 'NONE', #178, #216, #129 ) ;
#53 = DIRECTION ( 'NONE',  ( -5.068236695755906134E-31, -1.000000000000000000, -1.426581805901985798E-16 ) ) ;
#54 = PLANE ( 'NONE',  #140 ) ;
#55 = CARTESIAN_POINT ( 'NONE',  ( 2.199633243471174014E-14, -7.715274834628325378E-16, 6.299999999999999822 ) ) ;
#56 = DIRECTION ( 'NONE',  ( 3.491481338843133355E-15, -1.224646799147353207E-16, 1.000000000000000000 ) ) ;
#57 = CC_DESIGN_PERSON_AND_ORGANIZATION_ASSIGNMENT ( #138, #36, ( #123 ) ) ;
#58 = CARTESIAN_POINT ( 'NONE',  ( 1.047444401652940007E-13, 2.999519565323652267E-33, 30.00000000000000000 ) ) ;
#59 = EDGE_CURVE ( 'NONE', #220, #220, #80, .T. ) ;
#60 = AXIS2_PLACEMENT_3D ( 'NONE', #5, #112, #61 ) ;
#61 = DIRECTION ( 'NONE',  ( 0.0000000000000000000, 1.000000000000000000, 0.0000000000000000000 ) ) ;
#62 =( NAMED_UNIT ( * ) PLANE_ANGLE_UNIT ( ) SI_UNIT ( $, .RADIAN. ) );
#63 = VERTEX_POINT ( 'NONE', #204 ) ;
#64 = APPLICATION_PROTOCOL_DEFINITION ( 'international standard', 'config_control_design', 1994, #84 ) ;
#65 = PRODUCT_DEFINITION_SHAPE ( 'NONE', 'NONE',  #123 ) ;
#66 = PERSON_AND_ORGANIZATION ( #25, #21 ) ;
#67 = EDGE_CURVE ( 'NONE', #111, #111, #92, .T. ) ;
#68 = CC_DESIGN_APPROVAL ( #143, ( #185 ) ) ;
#69 = DIRECTION ( 'NONE',  ( 1.000000000000000000, 0.0000000000000000000, 0.0000000000000000000 ) ) ;
#70 = ORIENTED_EDGE ( 'NONE', *, *, #67, .T. ) ;
#71 = AXIS2_PLACEMENT_3D ( 'NONE', #91, #45, #199 ) ;
#72 = ORIENTED_EDGE ( 'NONE', *, *, #67, .F. ) ;
#73 = EDGE_LOOP ( 'NONE', ( #124 ) ) ;
#74 = CC_DESIGN_PERSON_AND_ORGANIZATION_ASSIGNMENT ( #150, #192, ( #221 ) ) ;
#75 = AXIS2_PLACEMENT_3D ( 'NONE', #161, #56, #110 ) ;
#76 = FACE_OUTER_BOUND ( 'NONE', #86, .T. ) ;
#77 = FACE_OUTER_BOUND ( 'NONE', #3, .T. ) ;
#78 = CARTESIAN_POINT ( 'NONE',  ( 1.047444401652940007E-13, -3.673940397442059178E-15, 30.00000000000000000 ) ) ;
#79 = APPROVAL_ROLE ( '' ) ;
#80 = CIRCLE ( 'NONE', #14, 0.3799999999999983391 ) ;
#81 = APPROVAL_STATUS ( 'not_yet_approved' ) ;
#82 = DATE_TIME_ROLE ( 'creation_date' ) ;
#83 = PRODUCT_RELATED_PRODUCT_CATEGORY ( 'detail', '', ( #169 ) ) ;
#84 = APPLICATION_CONTEXT ( 'configuration controlled 3d designs of mechanical parts and assemblies' ) ;
#85 = DIRECTION ( 'NONE',  ( 3.491481338843133355E-15, -1.224646799147353207E-16, 1.000000000000000000 ) ) ;
#86 = EDGE_LOOP ( 'NONE', ( #223 ) ) ;
#87 = CONICAL_SURFACE ( 'NONE', #153, 0.3999999999999989675, 0.7853981633974694843 ) ;
#88 = EDGE_LOOP ( 'NONE', ( #108 ) ) ;
#89 = CC_DESIGN_PERSON_AND_ORGANIZATION_ASSIGNMENT ( #120, #101, ( #185 ) ) ;
#90 = ORIENTED_EDGE ( 'NONE', *, *, #156, .F. ) ;
#91 = CARTESIAN_POINT ( 'NONE',  ( 1.043952920314096936E-13, -3.661693929450586610E-15, 29.90000000000000213 ) ) ;
#92 = CIRCLE ( 'NONE', #34, 0.3799999999999989497 ) ;
#93 = ADVANCED_FACE ( 'NONE', ( #109 ), #37, .T. ) ;
#94 = VERTEX_POINT ( 'NONE', #7 ) ;
#95 = AXIS2_PLACEMENT_3D ( 'NONE', #20, #2, #173 ) ;
#96 = FACE_BOUND ( 'NONE', #125, .T. ) ;
#97 = PERSON_AND_ORGANIZATION_ROLE ( 'design_owner' ) ;
#98 = MANIFOLD_SOLID_BREP ( 'Corps-Déplacer/Copier1[2]', #100 ) ;
#99 = APPROVAL_ROLE ( '' ) ;
#100 = CLOSED_SHELL ( 'NONE', ( #93, #13, #28 ) ) ;
#101 = PERSON_AND_ORGANIZATION_ROLE ( 'creator' ) ;
#102 = CIRCLE ( 'NONE', #210, 0.3799999999999989497 ) ;
#103 = EDGE_LOOP ( 'NONE', ( #175 ) ) ;
#104 = CC_DESIGN_DATE_AND_TIME_ASSIGNMENT ( #205, #82, ( #123 ) ) ;
#105 = CYLINDRICAL_SURFACE ( 'NONE', #193, 0.4999999999999981681 ) ;
#106 = ORIENTED_EDGE ( 'NONE', *, *, #172, .F. ) ;
#107 = ADVANCED_FACE ( 'NONE', ( #195, #39 ), #105, .T. ) ;
#108 = ORIENTED_EDGE ( 'NONE', *, *, #172, .T. ) ;
#109 = FACE_OUTER_BOUND ( 'NONE', #142, .T. ) ;
#110 = DIRECTION ( 'NONE',  ( -4.275831445896958607E-31, -1.000000000000000000, -1.224646799147353207E-16 ) ) ;
#111 = VERTEX_POINT ( 'NONE', #8 ) ;
#112 = DIRECTION ( 'NONE',  ( -3.491481338843133355E-15, 1.224646799147353207E-16, -1.000000000000000000 ) ) ;
#113 = CC_DESIGN_PERSON_AND_ORGANIZATION_ASSIGNMENT ( #188, #166, ( #185 ) ) ;
#114 = CALENDAR_DATE ( 2021, 8, 10 ) ;
#115 = PERSON_AND_ORGANIZATION ( #25, #21 ) ;
#116 = ADVANCED_BREP_SHAPE_REPRESENTATION ( '55328', ( #163, #98, #135 ), #48 ) ;
#117 = CC_DESIGN_PERSON_AND_ORGANIZATION_ASSIGNMENT ( #47, #97, ( #169 ) ) ;
#118 = PERSON_AND_ORGANIZATION ( #25, #21 ) ;
#119 = DATE_AND_TIME ( #137, #126 ) ;
#120 = PERSON_AND_ORGANIZATION ( #25, #21 ) ;
#121 = ORIENTED_EDGE ( 'NONE', *, *, #181, .T. ) ;
#122 = DIRECTION ( 'NONE',  ( 3.491481338843133355E-15, -1.224646799147353207E-16, 1.000000000000000000 ) ) ;
#123 = PRODUCT_DEFINITION ( 'UNKNOWN', '', #185, #179 ) ;
#124 = ORIENTED_EDGE ( 'NONE', *, *, #156, .T. ) ;
#125 = EDGE_LOOP ( 'NONE', ( #106 ) ) ;
#126 = LOCAL_TIME ( 7, 14, 38.00000000000000000, #189 ) ;
#127 = DIRECTION ( 'NONE',  ( -3.491481338843133355E-15, 1.224646799147353207E-16, -1.000000000000000000 ) ) ;
#128 = DIRECTION ( 'NONE',  ( 0.0000000000000000000, 1.000000000000000000, 0.0000000000000000000 ) ) ;
#129 = DIRECTION ( 'NONE',  ( 0.0000000000000000000, -1.000000000000000000, 0.0000000000000000000 ) ) ;
#130 = AXIS2_PLACEMENT_3D ( 'NONE', #58, #10, #134 ) ;
#131 = AXIS2_PLACEMENT_3D ( 'NONE', #155, #141, #1 ) ;
#132 = CARTESIAN_POINT ( 'NONE',  ( 1.043952920314096936E-13, 0.4999999999999954481, 29.90000000000000213 ) ) ;
#133 = CARTESIAN_POINT ( 'NONE',  ( 0.0000000000000000000, 0.0000000000000000000, 0.0000000000000000000 ) ) ;
#134 = DIRECTION ( 'NONE',  ( 4.275831445896958607E-31, 1.000000000000000000, 1.224646799147353207E-16 ) ) ;
#135 = AXIS2_PLACEMENT_3D ( 'NONE', #133, #203, #69 ) ;
#136 = CALENDAR_DATE ( 2021, 8, 10 ) ;
#137 = CALENDAR_DATE ( 2021, 8, 10 ) ;
#138 = PERSON_AND_ORGANIZATION ( #25, #21 ) ;
#139 = FACE_OUTER_BOUND ( 'NONE', #194, .T. ) ;
#140 = AXIS2_PLACEMENT_3D ( 'NONE', #18, #85, #41 ) ;
#141 = DIRECTION ( 'NONE',  ( -3.491481338843133355E-15, 1.224646799147353207E-16, -1.000000000000000000 ) ) ;
#142 = EDGE_LOOP ( 'NONE', ( #50 ) ) ;
#143 = APPROVAL ( #81, 'UNSPECIFIED' ) ;
#144 = DIRECTION ( 'NONE',  ( -3.491481338843133355E-15, 1.224646799147353207E-16, -1.000000000000000000 ) ) ;
#145 = CC_DESIGN_SECURITY_CLASSIFICATION ( #221, ( #185 ) ) ;
#146 = CARTESIAN_POINT ( 'NONE',  ( 1.047444401652940007E-13, 0.3999999999999953038, 30.00000000000000000 ) ) ;
#147 = ADVANCED_FACE ( 'NONE', ( #76 ), #200, .F. ) ;
#148 = LOCAL_TIME ( 7, 14, 38.00000000000000000, #209 ) ;
#149 = FACE_OUTER_BOUND ( 'NONE', #88, .T. ) ;
#150 = PERSON_AND_ORGANIZATION ( #25, #21 ) ;
#151 = COORDINATED_UNIVERSAL_TIME_OFFSET ( 1, 0, .AHEAD. ) ;
#152 = APPROVAL_DATE_TIME ( #187, #190 ) ;
#153 = AXIS2_PLACEMENT_3D ( 'NONE', #78, #29, #128 ) ;
#154 = EDGE_LOOP ( 'NONE', ( #90 ) ) ;
#155 = CARTESIAN_POINT ( 'NONE',  ( 2.355997872474070075E-14, -8.263728123717674473E-16, 6.747846096908270752 ) ) ;
#156 = EDGE_CURVE ( 'NONE', #6, #6, #168, .T. ) ;
#157 = CIRCLE ( 'NONE', #60, 0.3999999999999989675 ) ;
#158 = LOCAL_TIME ( 7, 14, 38.00000000000000000, #16 ) ;
#159 = APPLICATION_PROTOCOL_DEFINITION ( 'international standard', 'config_control_design', 1994, #191 ) ;
#160 = APPROVAL ( #222, 'UNSPECIFIED' ) ;
#161 = CARTESIAN_POINT ( 'NONE',  ( 2.199633243471174014E-14, 2.849543587057510228E-33, 6.299999999999999822 ) ) ;
#162 = ADVANCED_FACE ( 'NONE', ( #96, #77 ), #33, .T. ) ;
#163 = MANIFOLD_SOLID_BREP ( 'Corps-Déplacer/Copier1[1]', #43 ) ;
#164 = CARTESIAN_POINT ( 'NONE',  ( 7.971995826605801247E-16, 0.3799999999999982836, 0.2283270352304744566 ) ) ;
#165 = DIRECTION ( 'NONE',  ( -3.491481338843133355E-15, 1.224646799147353207E-16, -1.000000000000000000 ) ) ;
#166 = PERSON_AND_ORGANIZATION_ROLE ( 'design_supplier' ) ;
#167 = DATE_AND_TIME ( #15, #17 ) ;
#168 = CIRCLE ( 'NONE', #71, 0.4999999999999991673 ) ;
#169 = PRODUCT ( '55328', '55328', '', ( #171 ) ) ;
#170 = SHAPE_DEFINITION_REPRESENTATION ( #65, #116 ) ;
#171 = MECHANICAL_CONTEXT ( 'NONE', #191, 'mechanical' ) ;
#172 = EDGE_CURVE ( 'NONE', #63, #63, #102, .T. ) ;
#173 = DIRECTION ( 'NONE',  ( 4.275831445896958607E-31, 1.000000000000000000, 1.224646799147353207E-16 ) ) ;
#174 = EDGE_LOOP ( 'NONE', ( #121 ) ) ;
#175 = ORIENTED_EDGE ( 'NONE', *, *, #51, .F. ) ;
#176 = ORIENTED_EDGE ( 'NONE', *, *, #51, .T. ) ;
#177 = CC_DESIGN_DATE_AND_TIME_ASSIGNMENT ( #119, #207, ( #221 ) ) ;
#178 = CARTESIAN_POINT ( 'NONE',  ( 2.355997872474070075E-14, -8.263728123717674473E-16, 6.747846096908270752 ) ) ;
#179 = DESIGN_CONTEXT ( 'detailed design', #84, 'design' ) ;
#180 = CIRCLE ( 'NONE', #131, 0.4999999999999971689 ) ;
#181 = EDGE_CURVE ( 'NONE', #42, #42, #157, .T. ) ;
#182 = PLANE ( 'NONE',  #75 ) ;
#183 =( LENGTH_UNIT ( ) NAMED_UNIT ( * ) SI_UNIT ( .MILLI., .METRE. ) );
#184 = FACE_BOUND ( 'NONE', #174, .T. ) ;
#185 = PRODUCT_DEFINITION_FORMATION_WITH_SPECIFIED_SOURCE ( 'ANY', '', #169, .NOT_KNOWN. ) ;
#186 = APPROVAL_DATE_TIME ( #11, #143 ) ;
#187 = DATE_AND_TIME ( #136, #148 ) ;
#188 = PERSON_AND_ORGANIZATION ( #25, #21 ) ;
#189 = COORDINATED_UNIVERSAL_TIME_OFFSET ( 1, 0, .AHEAD. ) ;
#190 = APPROVAL ( #35, 'UNSPECIFIED' ) ;
#191 = APPLICATION_CONTEXT ( 'configuration controlled 3d designs of mechanical parts and assemblies' ) ;
#192 = PERSON_AND_ORGANIZATION_ROLE ( 'classification_officer' ) ;
#193 = AXIS2_PLACEMENT_3D ( 'NONE', #202, #217, #44 ) ;
#194 = EDGE_LOOP ( 'NONE', ( #72 ) ) ;
#195 = FACE_OUTER_BOUND ( 'NONE', #103, .T. ) ;
#196 = ORIENTED_EDGE ( 'NONE', *, *, #59, .F. ) ;
#197 = CARTESIAN_POINT ( 'NONE',  ( 7.971995826605799274E-16, -2.796199728538053617E-17, 0.2283270352304744011 ) ) ;
#198 = DIRECTION ( 'NONE',  ( 0.0000000000000000000, 1.000000000000000000, 0.0000000000000000000 ) ) ;
#199 = DIRECTION ( 'NONE',  ( 0.0000000000000000000, 1.000000000000000000, 0.0000000000000000000 ) ) ;
#200 = PLANE ( 'NONE',  #130 ) ;
#201 = AXIS2_PLACEMENT_3D ( 'NONE', #211, #122, #53 ) ;
#202 = CARTESIAN_POINT ( 'NONE',  ( 0.0000000000000000000, 0.0000000000000000000, 0.0000000000000000000 ) ) ;
#203 = DIRECTION ( 'NONE',  ( 0.0000000000000000000, 0.0000000000000000000, 1.000000000000000000 ) ) ;
#204 = CARTESIAN_POINT ( 'NONE',  ( 2.199633243471174014E-14, 0.3799999999999981726, 6.299999999999999822 ) ) ;
#205 = DATE_AND_TIME ( #49, #158 ) ;
#206 = ADVANCED_FACE ( 'NONE', ( #24, #184 ), #87, .T. ) ;
#207 = DATE_TIME_ROLE ( 'classification_date' ) ;
#208 = CC_DESIGN_APPROVAL ( #190, ( #123 ) ) ;
#209 = COORDINATED_UNIVERSAL_TIME_OFFSET ( 1, 0, .AHEAD. ) ;
#210 = AXIS2_PLACEMENT_3D ( 'NONE', #26, #165, #27 ) ;
#211 = CARTESIAN_POINT ( 'NONE',  ( 7.971995826605799274E-16, -2.796199728538053617E-17, 0.2283270352304744011 ) ) ;
#212 = ADVANCED_FACE ( 'NONE', ( #149 ), #182, .F. ) ;
#213 = FACE_OUTER_BOUND ( 'NONE', #4, .T. ) ;
#214 = DIRECTION ( 'NONE',  ( 5.068236695755906134E-31, 1.000000000000000000, 1.426581805901985798E-16 ) ) ;
#215 = CC_DESIGN_APPROVAL ( #160, ( #221 ) ) ;
#216 = DIRECTION ( 'NONE',  ( 3.491481338843133355E-15, -1.224646799147353207E-16, 1.000000000000000000 ) ) ;
#217 = DIRECTION ( 'NONE',  ( -3.491481338843133355E-15, 1.224646799147353207E-16, -1.000000000000000000 ) ) ;
#218 = APPROVAL_PERSON_ORGANIZATION ( #66, #190, #31 ) ;
#219 =( NAMED_UNIT ( * ) SI_UNIT ( $, .STERADIAN. ) SOLID_ANGLE_UNIT ( ) );
#220 = VERTEX_POINT ( 'NONE', #164 ) ;
#221 = SECURITY_CLASSIFICATION ( '', '', #32 ) ;
#222 = APPROVAL_STATUS ( 'not_yet_approved' ) ;
#223 = ORIENTED_EDGE ( 'NONE', *, *, #181, .F. ) ;
ENDSEC;
END-ISO-10303-21;
