ISO-10303-21;
HEADER;
FILE_DESCRIPTION (( 'STEP AP203' ),
    '1' );
FILE_NAME ('55327.step',
    '2021-10-08T05:14:37',
    ( '' ),
    ( '' ),
    'SwSTEP 2.0',
    'SolidWorks 2019',
    '' );
FILE_SCHEMA (( 'CONFIG_CONTROL_DESIGN' ));
ENDSEC;

DATA;
#1 = CARTESIAN_POINT ( 'NONE',  ( 1.955229549752154995E-14, 0.3749999999999983902, 5.600000000000000533 ) ) ;
#2 = CC_DESIGN_APPROVAL ( #174, ( #60 ) ) ;
#3 = APPROVAL_PERSON_ORGANIZATION ( #108, #174, #157 ) ;
#4 = COORDINATED_UNIVERSAL_TIME_OFFSET ( 1, 0, .AHEAD. ) ;
#5 = EDGE_LOOP ( 'NONE', ( #7 ) ) ;
#6 = CALENDAR_DATE ( 2021, 8, 10 ) ;
#7 = ORIENTED_EDGE ( 'NONE', *, *, #97, .F. ) ;
#8 = AXIS2_PLACEMENT_3D ( 'NONE', #200, #154, #86 ) ;
#9 = UNCERTAINTY_MEASURE_WITH_UNIT (LENGTH_MEASURE( 1.000000000000000082E-05 ), #193, 'distance_accuracy_value', 'NONE');
#10 = ADVANCED_FACE ( 'NONE', ( #61 ), #131, .F. ) ;
#11 = CARTESIAN_POINT ( 'NONE',  ( 1.043952920314096936E-13, 0.4999999999999954481, 29.90000000000000213 ) ) ;
#12 = AXIS2_PLACEMENT_3D ( 'NONE', #70, #116, #119 ) ;
#13 = PLANE ( 'NONE',  #137 ) ;
#14 = MANIFOLD_SOLID_BREP ( 'Corps-Déplacer/Copier1[1]', #40 ) ;
#15 = DIRECTION ( 'NONE',  ( -3.491481338843133355E-15, 1.224646799147353207E-16, -1.000000000000000000 ) ) ;
#16 = DIRECTION ( 'NONE',  ( 0.0000000000000000000, 1.000000000000000000, 0.0000000000000000000 ) ) ;
#17 =( NAMED_UNIT ( * ) PLANE_ANGLE_UNIT ( ) SI_UNIT ( $, .RADIAN. ) );
#18 = DIRECTION ( 'NONE',  ( 1.000000000000000000, 0.0000000000000000000, 0.0000000000000000000 ) ) ;
#19 = COORDINATED_UNIVERSAL_TIME_OFFSET ( 1, 0, .AHEAD. ) ;
#20 = ADVANCED_FACE ( 'NONE', ( #48 ), #184, .T. ) ;
#21 = AXIS2_PLACEMENT_3D ( 'NONE', #118, #120, #31 ) ;
#22 = MANIFOLD_SOLID_BREP ( 'Corps-Déplacer/Copier1[2]', #57 ) ;
#23 = CALENDAR_DATE ( 2021, 8, 10 ) ;
#24 = PRODUCT ( '55327', '55327', '', ( #58 ) ) ;
#25 = ORIENTED_EDGE ( 'NONE', *, *, #194, .F. ) ;
#26 = ADVANCED_FACE ( 'NONE', ( #223, #217 ), #124, .T. ) ;
#27 = EDGE_LOOP ( 'NONE', ( #83 ) ) ;
#28 = DIRECTION ( 'NONE',  ( 3.491481338843133355E-15, -1.224646799147353207E-16, 1.000000000000000000 ) ) ;
#29 = DIRECTION ( 'NONE',  ( -5.135813185032651421E-31, -1.000000000000000000, -1.445602896647345573E-16 ) ) ;
#30 = APPROVAL_PERSON_ORGANIZATION ( #38, #41, #178 ) ;
#31 = DIRECTION ( 'NONE',  ( 0.0000000000000000000, 1.000000000000000000, 0.0000000000000000000 ) ) ;
#32 = CARTESIAN_POINT ( 'NONE',  ( 1.955229549752154995E-14, -6.858022075225178552E-16, 5.600000000000000533 ) ) ;
#33 = DIRECTION ( 'NONE',  ( 3.491481338843133355E-15, -1.224646799147353207E-16, 1.000000000000000000 ) ) ;
#34 =( GEOMETRIC_REPRESENTATION_CONTEXT ( 3 ) GLOBAL_UNCERTAINTY_ASSIGNED_CONTEXT ( ( #9 ) ) GLOBAL_UNIT_ASSIGNED_CONTEXT ( ( #193, #17, #76 ) ) REPRESENTATION_CONTEXT ( 'NONE', 'WORKASPACE' ) );
#35 = VERTEX_POINT ( 'NONE', #161 ) ;
#36 = CARTESIAN_POINT ( 'NONE',  ( 0.0000000000000000000, 0.0000000000000000000, 0.0000000000000000000 ) ) ;
#37 = LOCAL_TIME ( 7, 14, 37.00000000000000000, #4 ) ;
#38 = PERSON_AND_ORGANIZATION ( #195, #63 ) ;
#39 = APPLICATION_PROTOCOL_DEFINITION ( 'international standard', 'config_control_design', 1994, #112 ) ;
#40 = CLOSED_SHELL ( 'NONE', ( #10, #165, #218, #26, #141 ) ) ;
#41 = APPROVAL ( #175, 'UNSPECIFIED' ) ;
#42 = APPROVAL_DATE_TIME ( #164, #209 ) ;
#43 = EDGE_LOOP ( 'NONE', ( #114 ) ) ;
#44 = DESIGN_CONTEXT ( 'detailed design', #112, 'design' ) ;
#45 = EDGE_LOOP ( 'NONE', ( #182 ) ) ;
#46 = CIRCLE ( 'NONE', #21, 0.3749999999999991118 ) ;
#47 = CC_DESIGN_DATE_AND_TIME_ASSIGNMENT ( #95, #144, ( #221 ) ) ;
#48 = FACE_OUTER_BOUND ( 'NONE', #45, .T. ) ;
#49 = FACE_OUTER_BOUND ( 'NONE', #213, .T. ) ;
#50 = FACE_OUTER_BOUND ( 'NONE', #199, .T. ) ;
#51 = AXIS2_PLACEMENT_3D ( 'NONE', #136, #170, #88 ) ;
#52 = DIRECTION ( 'NONE',  ( 0.0000000000000000000, -1.000000000000000000, 0.0000000000000000000 ) ) ;
#53 = PLANE ( 'NONE',  #115 ) ;
#54 = CALENDAR_DATE ( 2021, 8, 10 ) ;
#55 = CC_DESIGN_APPROVAL ( #209, ( #221 ) ) ;
#56 = DATE_AND_TIME ( #192, #37 ) ;
#57 = CLOSED_SHELL ( 'NONE', ( #20, #158, #126 ) ) ;
#58 = MECHANICAL_CONTEXT ( 'NONE', #222, 'mechanical' ) ;
#59 = ORIENTED_EDGE ( 'NONE', *, *, #194, .T. ) ;
#60 = PRODUCT_DEFINITION ( 'UNKNOWN', '', #90, #44 ) ;
#61 = FACE_OUTER_BOUND ( 'NONE', #79, .T. ) ;
#62 = EDGE_LOOP ( 'NONE', ( #130 ) ) ;
#63 = ORGANIZATION ( 'UNSPECIFIED', 'UNSPECIFIED', '' ) ;
#64 = DIRECTION ( 'NONE',  ( -3.491481338843133355E-15, 1.224646799147353207E-16, -1.000000000000000000 ) ) ;
#65 = CARTESIAN_POINT ( 'NONE',  ( 7.867101144676774471E-16, -2.759407626846763576E-17, 0.2253227321353365453 ) ) ;
#66 = CARTESIAN_POINT ( 'NONE',  ( 1.955229549752154995E-14, 0.3749999999999983902, 5.600000000000000533 ) ) ;
#67 = EDGE_CURVE ( 'NONE', #219, #219, #180, .T. ) ;
#68 = DIRECTION ( 'NONE',  ( 4.275831445896958607E-31, 1.000000000000000000, 1.224646799147353207E-16 ) ) ;
#69 = AXIS2_PLACEMENT_3D ( 'NONE', #197, #33, #187 ) ;
#70 = CARTESIAN_POINT ( 'NONE',  ( 1.043952920314096936E-13, -3.661693929450586610E-15, 29.90000000000000213 ) ) ;
#71 = PERSON_AND_ORGANIZATION ( #195, #63 ) ;
#72 = APPROVAL_DATE_TIME ( #123, #41 ) ;
#73 = AXIS2_PLACEMENT_3D ( 'NONE', #65, #139, #202 ) ;
#74 = PERSON_AND_ORGANIZATION ( #195, #63 ) ;
#75 = PERSON_AND_ORGANIZATION_ROLE ( 'creator' ) ;
#76 =( NAMED_UNIT ( * ) SI_UNIT ( $, .STERADIAN. ) SOLID_ANGLE_UNIT ( ) );
#77 = CONICAL_SURFACE ( 'NONE', #81, 0.4999999999999970579, 0.2617993877991429130 ) ;
#78 = COORDINATED_UNIVERSAL_TIME_OFFSET ( 1, 0, .AHEAD. ) ;
#79 = EDGE_LOOP ( 'NONE', ( #80 ) ) ;
#80 = ORIENTED_EDGE ( 'NONE', *, *, #111, .T. ) ;
#81 = AXIS2_PLACEMENT_3D ( 'NONE', #203, #28, #52 ) ;
#82 = EDGE_LOOP ( 'NONE', ( #149 ) ) ;
#83 = ORIENTED_EDGE ( 'NONE', *, *, #181, .T. ) ;
#84 = CYLINDRICAL_SURFACE ( 'NONE', #146, 0.3749999999999987232 ) ;
#85 = VERTEX_POINT ( 'NONE', #66 ) ;
#86 = DIRECTION ( 'NONE',  ( 4.275831445896958607E-31, 1.000000000000000000, 1.224646799147353207E-16 ) ) ;
#87 = CC_DESIGN_PERSON_AND_ORGANIZATION_ASSIGNMENT ( #71, #92, ( #60 ) ) ;
#88 = DIRECTION ( 'NONE',  ( 0.0000000000000000000, 1.000000000000000000, 0.0000000000000000000 ) ) ;
#89 = FACE_OUTER_BOUND ( 'NONE', #99, .T. ) ;
#90 = PRODUCT_DEFINITION_FORMATION_WITH_SPECIFIED_SOURCE ( 'ANY', '', #24, .NOT_KNOWN. ) ;
#91 = PERSON_AND_ORGANIZATION ( #195, #63 ) ;
#92 = PERSON_AND_ORGANIZATION_ROLE ( 'creator' ) ;
#93 = PRODUCT_RELATED_PRODUCT_CATEGORY ( 'detail', '', ( #24 ) ) ;
#94 = CIRCLE ( 'NONE', #172, 0.3999999999999989675 ) ;
#95 = DATE_AND_TIME ( #23, #152 ) ;
#96 = CARTESIAN_POINT ( 'NONE',  ( 1.047444401652940007E-13, 0.3999999999999953038, 30.00000000000000000 ) ) ;
#97 = EDGE_CURVE ( 'NONE', #101, #101, #212, .T. ) ;
#98 = EDGE_LOOP ( 'NONE', ( #147 ) ) ;
#99 = EDGE_LOOP ( 'NONE', ( #25 ) ) ;
#100 = AXIS2_PLACEMENT_3D ( 'NONE', #220, #15, #16 ) ;
#101 = VERTEX_POINT ( 'NONE', #11 ) ;
#102 = LOCAL_TIME ( 7, 14, 37.00000000000000000, #129 ) ;
#103 = CC_DESIGN_PERSON_AND_ORGANIZATION_ASSIGNMENT ( #91, #127, ( #24 ) ) ;
#104 = DIRECTION ( 'NONE',  ( 0.0000000000000000000, 1.000000000000000000, 0.0000000000000000000 ) ) ;
#105 = CARTESIAN_POINT ( 'NONE',  ( 1.047444401652940007E-13, -3.673940397442059178E-15, 30.00000000000000000 ) ) ;
#106 = DIRECTION ( 'NONE',  ( 0.0000000000000000000, 1.000000000000000000, 0.0000000000000000000 ) ) ;
#107 = CARTESIAN_POINT ( 'NONE',  ( 1.955229549752154995E-14, -1.034091280205473993E-31, 5.600000000000000533 ) ) ;
#108 = PERSON_AND_ORGANIZATION ( #195, #63 ) ;
#109 = APPROVAL_DATE_TIME ( #160, #174 ) ;
#110 = PERSON_AND_ORGANIZATION ( #195, #63 ) ;
#111 = EDGE_CURVE ( 'NONE', #85, #85, #46, .T. ) ;
#112 = APPLICATION_CONTEXT ( 'configuration controlled 3d designs of mechanical parts and assemblies' ) ;
#113 = CIRCLE ( 'NONE', #73, 0.3749999999999983347 ) ;
#114 = ORIENTED_EDGE ( 'NONE', *, *, #150, .F. ) ;
#115 = AXIS2_PLACEMENT_3D ( 'NONE', #151, #122, #189 ) ;
#116 = DIRECTION ( 'NONE',  ( -3.491481338843133355E-15, 1.224646799147353207E-16, -1.000000000000000000 ) ) ;
#117 = ADVANCED_BREP_SHAPE_REPRESENTATION ( '55327', ( #14, #22, #163 ), #34 ) ;
#118 = CARTESIAN_POINT ( 'NONE',  ( 1.955229549752154995E-14, -6.858022075225178552E-16, 5.600000000000000533 ) ) ;
#119 = DIRECTION ( 'NONE',  ( 0.0000000000000000000, 1.000000000000000000, 0.0000000000000000000 ) ) ;
#120 = DIRECTION ( 'NONE',  ( -3.491481338843133355E-15, 1.224646799147353207E-16, -1.000000000000000000 ) ) ;
#121 = CC_DESIGN_PERSON_AND_ORGANIZATION_ASSIGNMENT ( #74, #176, ( #221 ) ) ;
#122 = DIRECTION ( 'NONE',  ( -3.491481338843133355E-15, 1.224646799147353207E-16, -1.000000000000000000 ) ) ;
#123 = DATE_AND_TIME ( #54, #166 ) ;
#124 = CONICAL_SURFACE ( 'NONE', #100, 0.3999999999999989675, 0.7853981633974694843 ) ;
#125 = COORDINATED_UNIVERSAL_TIME_OFFSET ( 1, 0, .AHEAD. ) ;
#126 = ADVANCED_FACE ( 'NONE', ( #89 ), #13, .T. ) ;
#127 = PERSON_AND_ORGANIZATION_ROLE ( 'design_owner' ) ;
#128 = APPROVAL_PERSON_ORGANIZATION ( #148, #209, #179 ) ;
#129 = COORDINATED_UNIVERSAL_TIME_OFFSET ( 1, 0, .AHEAD. ) ;
#130 = ORIENTED_EDGE ( 'NONE', *, *, #181, .F. ) ;
#131 = PLANE ( 'NONE',  #69 ) ;
#132 = SHAPE_DEFINITION_REPRESENTATION ( #142, #117 ) ;
#133 = CYLINDRICAL_SURFACE ( 'NONE', #8, 0.4999999999999980571 ) ;
#134 = CC_DESIGN_PERSON_AND_ORGANIZATION_ASSIGNMENT ( #205, #75, ( #90 ) ) ;
#135 = DIRECTION ( 'NONE',  ( 3.491481338843133355E-15, -1.224646799147353207E-16, 1.000000000000000000 ) ) ;
#136 = CARTESIAN_POINT ( 'NONE',  ( 2.118109371630171568E-14, -7.429327584693249869E-16, 6.066506350946115234 ) ) ;
#137 = AXIS2_PLACEMENT_3D ( 'NONE', #107, #135, #156 ) ;
#138 = FACE_OUTER_BOUND ( 'NONE', #98, .T. ) ;
#139 = DIRECTION ( 'NONE',  ( -3.491481338843133355E-15, 1.224646799147353207E-16, -1.000000000000000000 ) ) ;
#140 = DATE_TIME_ROLE ( 'creation_date' ) ;
#141 = ADVANCED_FACE ( 'NONE', ( #167 ), #53, .F. ) ;
#142 = PRODUCT_DEFINITION_SHAPE ( 'NONE', 'NONE',  #60 ) ;
#143 = CALENDAR_DATE ( 2021, 8, 10 ) ;
#144 = DATE_TIME_ROLE ( 'classification_date' ) ;
#145 = APPROVAL_STATUS ( 'not_yet_approved' ) ;
#146 = AXIS2_PLACEMENT_3D ( 'NONE', #215, #155, #68 ) ;
#147 = ORIENTED_EDGE ( 'NONE', *, *, #67, .T. ) ;
#148 = PERSON_AND_ORGANIZATION ( #195, #63 ) ;
#149 = ORIENTED_EDGE ( 'NONE', *, *, #111, .F. ) ;
#150 = EDGE_CURVE ( 'NONE', #35, #35, #113, .T. ) ;
#151 = CARTESIAN_POINT ( 'NONE',  ( 1.047444401652940007E-13, 2.999519565323652267E-33, 30.00000000000000000 ) ) ;
#152 = LOCAL_TIME ( 7, 14, 37.00000000000000000, #19 ) ;
#153 = FACE_OUTER_BOUND ( 'NONE', #43, .T. ) ;
#154 = DIRECTION ( 'NONE',  ( -3.491481338843133355E-15, 1.224646799147353207E-16, -1.000000000000000000 ) ) ;
#155 = DIRECTION ( 'NONE',  ( -3.491481338843133355E-15, 1.224646799147353207E-16, -1.000000000000000000 ) ) ;
#156 = DIRECTION ( 'NONE',  ( -4.275831445896958607E-31, -1.000000000000000000, -1.224646799147353207E-16 ) ) ;
#157 = APPROVAL_ROLE ( '' ) ;
#158 = ADVANCED_FACE ( 'NONE', ( #153, #49 ), #84, .T. ) ;
#159 = CIRCLE ( 'NONE', #196, 0.3749999999999991118 ) ;
#160 = DATE_AND_TIME ( #143, #102 ) ;
#161 = CARTESIAN_POINT ( 'NONE',  ( 7.867101144676776443E-16, 0.3749999999999982792, 0.2253227321353366008 ) ) ;
#162 = VERTEX_POINT ( 'NONE', #1 ) ;
#163 = AXIS2_PLACEMENT_3D ( 'NONE', #36, #208, #18 ) ;
#164 = DATE_AND_TIME ( #6, #207 ) ;
#165 = ADVANCED_FACE ( 'NONE', ( #186, #138 ), #77, .T. ) ;
#166 = LOCAL_TIME ( 7, 14, 37.00000000000000000, #125 ) ;
#167 = FACE_OUTER_BOUND ( 'NONE', #62, .T. ) ;
#168 = AXIS2_PLACEMENT_3D ( 'NONE', #204, #173, #29 ) ;
#169 = CC_DESIGN_SECURITY_CLASSIFICATION ( #221, ( #90 ) ) ;
#170 = DIRECTION ( 'NONE',  ( -3.491481338843133355E-15, 1.224646799147353207E-16, -1.000000000000000000 ) ) ;
#171 = FACE_OUTER_BOUND ( 'NONE', #214, .T. ) ;
#172 = AXIS2_PLACEMENT_3D ( 'NONE', #105, #64, #104 ) ;
#173 = DIRECTION ( 'NONE',  ( 3.491481338843133355E-15, -1.224646799147353207E-16, 1.000000000000000000 ) ) ;
#174 = APPROVAL ( #145, 'UNSPECIFIED' ) ;
#175 = APPROVAL_STATUS ( 'not_yet_approved' ) ;
#176 = PERSON_AND_ORGANIZATION_ROLE ( 'classification_officer' ) ;
#177 = SECURITY_CLASSIFICATION_LEVEL ( 'unclassified' ) ;
#178 = APPROVAL_ROLE ( '' ) ;
#179 = APPROVAL_ROLE ( '' ) ;
#180 = CIRCLE ( 'NONE', #51, 0.4999999999999970579 ) ;
#181 = EDGE_CURVE ( 'NONE', #190, #190, #94, .T. ) ;
#182 = ORIENTED_EDGE ( 'NONE', *, *, #150, .T. ) ;
#183 = ORIENTED_EDGE ( 'NONE', *, *, #97, .T. ) ;
#184 = CONICAL_SURFACE ( 'NONE', #168, 0.3749999999999983347, 1.029744258676649871 ) ;
#185 = CARTESIAN_POINT ( 'NONE',  ( 2.118109371630171568E-14, 0.4999999999999963363, 6.066506350946115234 ) ) ;
#186 = FACE_BOUND ( 'NONE', #82, .T. ) ;
#187 = DIRECTION ( 'NONE',  ( -4.275831445896958607E-31, -1.000000000000000000, -1.224646799147353207E-16 ) ) ;
#188 = DIRECTION ( 'NONE',  ( -3.491481338843133355E-15, 1.224646799147353207E-16, -1.000000000000000000 ) ) ;
#189 = DIRECTION ( 'NONE',  ( 4.275831445896958607E-31, 1.000000000000000000, 1.224646799147353207E-16 ) ) ;
#190 = VERTEX_POINT ( 'NONE', #96 ) ;
#191 = PERSON_AND_ORGANIZATION_ROLE ( 'design_supplier' ) ;
#192 = CALENDAR_DATE ( 2021, 8, 10 ) ;
#193 =( LENGTH_UNIT ( ) NAMED_UNIT ( * ) SI_UNIT ( .MILLI., .METRE. ) );
#194 = EDGE_CURVE ( 'NONE', #162, #162, #159, .T. ) ;
#195 = PERSON ( 'UNSPECIFIED', 'UNSPECIFIED', 'UNSPECIFIED', ('UNSPECIFIED'), ('UNSPECIFIED'), ('UNSPECIFIED') ) ;
#196 = AXIS2_PLACEMENT_3D ( 'NONE', #32, #188, #106 ) ;
#197 = CARTESIAN_POINT ( 'NONE',  ( 1.955229549752154995E-14, -1.034091280205473993E-31, 5.600000000000000533 ) ) ;
#198 = CC_DESIGN_PERSON_AND_ORGANIZATION_ASSIGNMENT ( #110, #191, ( #90 ) ) ;
#199 = EDGE_LOOP ( 'NONE', ( #210 ) ) ;
#200 = CARTESIAN_POINT ( 'NONE',  ( 0.0000000000000000000, 0.0000000000000000000, 0.0000000000000000000 ) ) ;
#201 = CC_DESIGN_DATE_AND_TIME_ASSIGNMENT ( #56, #140, ( #60 ) ) ;
#202 = DIRECTION ( 'NONE',  ( 5.135813185032651421E-31, 1.000000000000000000, 1.445602896647345573E-16 ) ) ;
#203 = CARTESIAN_POINT ( 'NONE',  ( 2.118109371630171568E-14, -7.429327584693249869E-16, 6.066506350946115234 ) ) ;
#204 = CARTESIAN_POINT ( 'NONE',  ( 7.867101144676774471E-16, -2.759407626846763576E-17, 0.2253227321353365453 ) ) ;
#205 = PERSON_AND_ORGANIZATION ( #195, #63 ) ;
#206 = APPLICATION_PROTOCOL_DEFINITION ( 'international standard', 'config_control_design', 1994, #222 ) ;
#207 = LOCAL_TIME ( 7, 14, 37.00000000000000000, #78 ) ;
#208 = DIRECTION ( 'NONE',  ( 0.0000000000000000000, 0.0000000000000000000, 1.000000000000000000 ) ) ;
#209 = APPROVAL ( #211, 'UNSPECIFIED' ) ;
#210 = ORIENTED_EDGE ( 'NONE', *, *, #67, .F. ) ;
#211 = APPROVAL_STATUS ( 'not_yet_approved' ) ;
#212 = CIRCLE ( 'NONE', #12, 0.4999999999999991673 ) ;
#213 = EDGE_LOOP ( 'NONE', ( #59 ) ) ;
#214 = EDGE_LOOP ( 'NONE', ( #183 ) ) ;
#215 = CARTESIAN_POINT ( 'NONE',  ( 0.0000000000000000000, 0.0000000000000000000, 0.0000000000000000000 ) ) ;
#216 = CC_DESIGN_APPROVAL ( #41, ( #90 ) ) ;
#217 = FACE_BOUND ( 'NONE', #27, .T. ) ;
#218 = ADVANCED_FACE ( 'NONE', ( #50, #171 ), #133, .T. ) ;
#219 = VERTEX_POINT ( 'NONE', #185 ) ;
#220 = CARTESIAN_POINT ( 'NONE',  ( 1.047444401652940007E-13, -3.673940397442059178E-15, 30.00000000000000000 ) ) ;
#221 = SECURITY_CLASSIFICATION ( '', '', #177 ) ;
#222 = APPLICATION_CONTEXT ( 'configuration controlled 3d designs of mechanical parts and assemblies' ) ;
#223 = FACE_OUTER_BOUND ( 'NONE', #5, .T. ) ;
ENDSEC;
END-ISO-10303-21;
