ISO-10303-21;
HEADER;
FILE_DESCRIPTION (( 'STEP AP203' ),
    '1' );
FILE_NAME ('55326.step',
    '2021-10-08T05:14:36',
    ( '' ),
    ( '' ),
    'SwSTEP 2.0',
    'SolidWorks 2019',
    '' );
FILE_SCHEMA (( 'CONFIG_CONTROL_DESIGN' ));
ENDSEC;

DATA;
#1 = PLANE ( 'NONE',  #147 ) ;
#2 = CARTESIAN_POINT ( 'NONE',  ( 1.047444401652940007E-13, -3.673940397442059178E-15, 30.00000000000000000 ) ) ;
#3 = CARTESIAN_POINT ( 'NONE',  ( 2.124624564505292079E-14, -7.452179805071972090E-16, 6.085166604983959004 ) ) ;
#4 = DIRECTION ( 'NONE',  ( 0.0000000000000000000, 1.000000000000000000, 0.0000000000000000000 ) ) ;
#5 = VERTEX_POINT ( 'NONE', #210 ) ;
#6 = AXIS2_PLACEMENT_3D ( 'NONE', #173, #35, #19 ) ;
#7 = ADVANCED_FACE ( 'NONE', ( #168 ), #1, .T. ) ;
#8 = PLANE ( 'NONE',  #45 ) ;
#9 = CARTESIAN_POINT ( 'NONE',  ( 1.047444401652940007E-13, 0.3999999999999953038, 30.00000000000000000 ) ) ;
#10 = EDGE_LOOP ( 'NONE', ( #194 ) ) ;
#11 = EDGE_LOOP ( 'NONE', ( #48 ) ) ;
#12 = CARTESIAN_POINT ( 'NONE',  ( 1.955229549752154679E-14, 0.3699999999999981637, 5.599999999999999645 ) ) ;
#13 = AXIS2_PLACEMENT_3D ( 'NONE', #131, #130, #155 ) ;
#14 = ORIENTED_EDGE ( 'NONE', *, *, #178, .F. ) ;
#15 = APPROVAL_STATUS ( 'not_yet_approved' ) ;
#16 = DIRECTION ( 'NONE',  ( 3.491481338843133355E-15, -1.224646799147353207E-16, 1.000000000000000000 ) ) ;
#17 = APPLICATION_CONTEXT ( 'configuration controlled 3d designs of mechanical parts and assemblies' ) ;
#18 = CC_DESIGN_DATE_AND_TIME_ASSIGNMENT ( #112, #163, ( #133 ) ) ;
#19 = DIRECTION ( 'NONE',  ( 4.275831445896958607E-31, 1.000000000000000000, 1.224646799147353207E-16 ) ) ;
#20 = APPROVAL_ROLE ( '' ) ;
#21 = MANIFOLD_SOLID_BREP ( 'Corps-Déplacer/Copier1[2]', #41 ) ;
#22 = DIRECTION ( 'NONE',  ( -3.491481338843133355E-15, 1.224646799147353207E-16, -1.000000000000000000 ) ) ;
#23 = APPROVAL_PERSON_ORGANIZATION ( #115, #61, #30 ) ;
#24 = DIRECTION ( 'NONE',  ( 0.0000000000000000000, 1.000000000000000000, 0.0000000000000000000 ) ) ;
#25 = PRODUCT_DEFINITION ( 'UNKNOWN', '', #26, #193 ) ;
#26 = PRODUCT_DEFINITION_FORMATION_WITH_SPECIFIED_SOURCE ( 'ANY', '', #143, .NOT_KNOWN. ) ;
#27 = CARTESIAN_POINT ( 'NONE',  ( 1.043952920314096936E-13, 0.4999999999999954481, 29.90000000000000213 ) ) ;
#28 = ORIENTED_EDGE ( 'NONE', *, *, #178, .T. ) ;
#29 = COORDINATED_UNIVERSAL_TIME_OFFSET ( 1, 0, .AHEAD. ) ;
#30 = APPROVAL_ROLE ( '' ) ;
#31 = EDGE_LOOP ( 'NONE', ( #116 ) ) ;
#32 = ORIENTED_EDGE ( 'NONE', *, *, #40, .T. ) ;
#33 = APPROVAL_DATE_TIME ( #185, #209 ) ;
#34 = CONICAL_SURFACE ( 'NONE', #77, 0.3699999999999983857, 1.029744258676649871 ) ;
#35 = DIRECTION ( 'NONE',  ( -3.491481338843133355E-15, 1.224646799147353207E-16, -1.000000000000000000 ) ) ;
#36 = AXIS2_PLACEMENT_3D ( 'NONE', #207, #203, #67 ) ;
#37 = AXIS2_PLACEMENT_3D ( 'NONE', #144, #175, #50 ) ;
#38 = LOCAL_TIME ( 7, 14, 36.00000000000000000, #174 ) ;
#39 = CARTESIAN_POINT ( 'NONE',  ( 0.0000000000000000000, 0.0000000000000000000, 0.0000000000000000000 ) ) ;
#40 = EDGE_CURVE ( 'NONE', #5, #5, #66, .T. ) ;
#41 = CLOSED_SHELL ( 'NONE', ( #125, #92, #7 ) ) ;
#42 = VERTEX_POINT ( 'NONE', #218 ) ;
#43 = EDGE_LOOP ( 'NONE', ( #186 ) ) ;
#44 = PERSON_AND_ORGANIZATION ( #205, #91 ) ;
#45 = AXIS2_PLACEMENT_3D ( 'NONE', #214, #75, #57 ) ;
#46 = CARTESIAN_POINT ( 'NONE',  ( 0.0000000000000000000, 0.0000000000000000000, 0.0000000000000000000 ) ) ;
#47 = COORDINATED_UNIVERSAL_TIME_OFFSET ( 1, 0, .AHEAD. ) ;
#48 = ORIENTED_EDGE ( 'NONE', *, *, #149, .T. ) ;
#49 = CC_DESIGN_APPROVAL ( #61, ( #25 ) ) ;
#50 = DIRECTION ( 'NONE',  ( 0.0000000000000000000, 1.000000000000000000, 0.0000000000000000000 ) ) ;
#51 = EDGE_CURVE ( 'NONE', #164, #164, #121, .T. ) ;
#52 = CYLINDRICAL_SURFACE ( 'NONE', #6, 0.3699999999999986078 ) ;
#53 = CC_DESIGN_APPROVAL ( #209, ( #26 ) ) ;
#54 = ADVANCED_FACE ( 'NONE', ( #105, #123 ), #198, .T. ) ;
#55 = CC_DESIGN_PERSON_AND_ORGANIZATION_ASSIGNMENT ( #44, #59, ( #133 ) ) ;
#56 = AXIS2_PLACEMENT_3D ( 'NONE', #124, #89, #190 ) ;
#57 = DIRECTION ( 'NONE',  ( 4.275831445896958607E-31, 1.000000000000000000, 1.224646799147353207E-16 ) ) ;
#58 = EDGE_LOOP ( 'NONE', ( #84 ) ) ;
#59 = PERSON_AND_ORGANIZATION_ROLE ( 'classification_officer' ) ;
#60 = DIRECTION ( 'NONE',  ( -3.491481338843133355E-15, 1.224646799147353207E-16, -1.000000000000000000 ) ) ;
#61 = APPROVAL ( #15, 'UNSPECIFIED' ) ;
#62 = PERSON_AND_ORGANIZATION ( #205, #91 ) ;
#63 = APPROVAL_DATE_TIME ( #103, #61 ) ;
#64 = DIRECTION ( 'NONE',  ( -4.275831445896958607E-31, -1.000000000000000000, -1.224646799147353207E-16 ) ) ;
#65 = PRODUCT_DEFINITION_SHAPE ( 'NONE', 'NONE',  #25 ) ;
#66 = CIRCLE ( 'NONE', #160, 0.4999999999999970579 ) ;
#67 = DIRECTION ( 'NONE',  ( 5.205216065911470597E-31, 1.000000000000000000, 1.465138070926363633E-16 ) ) ;
#68 = APPROVAL_PERSON_ORGANIZATION ( #70, #165, #20 ) ;
#69 = CARTESIAN_POINT ( 'NONE',  ( 2.124624564505292079E-14, -7.452179805071972090E-16, 6.085166604983959004 ) ) ;
#70 = PERSON_AND_ORGANIZATION ( #205, #91 ) ;
#71 = CALENDAR_DATE ( 2021, 8, 10 ) ;
#72 = CIRCLE ( 'NONE', #182, 0.3999999999999989675 ) ;
#73 = CC_DESIGN_APPROVAL ( #165, ( #133 ) ) ;
#74 = DIRECTION ( 'NONE',  ( -3.491481338843133355E-15, 1.224646799147353207E-16, -1.000000000000000000 ) ) ;
#75 = DIRECTION ( 'NONE',  ( -3.491481338843133355E-15, 1.224646799147353207E-16, -1.000000000000000000 ) ) ;
#76 = APPLICATION_CONTEXT ( 'configuration controlled 3d designs of mechanical parts and assemblies' ) ;
#77 = AXIS2_PLACEMENT_3D ( 'NONE', #87, #16, #86 ) ;
#78 = CALENDAR_DATE ( 2021, 8, 10 ) ;
#79 = EDGE_LOOP ( 'NONE', ( #135 ) ) ;
#80 = EDGE_CURVE ( 'NONE', #192, #192, #109, .T. ) ;
#81 =( NAMED_UNIT ( * ) SI_UNIT ( $, .STERADIAN. ) SOLID_ANGLE_UNIT ( ) );
#82 = PERSON_AND_ORGANIZATION ( #205, #91 ) ;
#83 = VERTEX_POINT ( 'NONE', #27 ) ;
#84 = ORIENTED_EDGE ( 'NONE', *, *, #80, .F. ) ;
#85 = PERSON_AND_ORGANIZATION ( #205, #91 ) ;
#86 = DIRECTION ( 'NONE',  ( -5.205216065911470597E-31, -1.000000000000000000, -1.465138070926363633E-16 ) ) ;
#87 = CARTESIAN_POINT ( 'NONE',  ( 7.762206462747752626E-16, -2.722615525155473535E-17, 0.2223184290401987451 ) ) ;
#88 = DATE_AND_TIME ( #71, #38 ) ;
#89 = DIRECTION ( 'NONE',  ( 3.491481338843133355E-15, -1.224646799147353207E-16, 1.000000000000000000 ) ) ;
#90 = CARTESIAN_POINT ( 'NONE',  ( 7.762206462747753612E-16, 0.3699999999999983302, 0.2223184290401988006 ) ) ;
#91 = ORGANIZATION ( 'UNSPECIFIED', 'UNSPECIFIED', '' ) ;
#92 = ADVANCED_FACE ( 'NONE', ( #208, #142 ), #52, .T. ) ;
#93 = CARTESIAN_POINT ( 'NONE',  ( 1.955229549752154679E-14, -6.858022075225177566E-16, 5.599999999999999645 ) ) ;
#94 = FACE_OUTER_BOUND ( 'NONE', #79, .T. ) ;
#95 = MANIFOLD_SOLID_BREP ( 'Corps-Déplacer/Copier1[1]', #170 ) ;
#96 = FACE_OUTER_BOUND ( 'NONE', #43, .T. ) ;
#97 = CYLINDRICAL_SURFACE ( 'NONE', #113, 0.4999999999999980571 ) ;
#98 = DIRECTION ( 'NONE',  ( 4.275831445896958607E-31, 1.000000000000000000, 1.224646799147353207E-16 ) ) ;
#99 = LOCAL_TIME ( 7, 14, 36.00000000000000000, #139 ) ;
#100 = PERSON_AND_ORGANIZATION_ROLE ( 'design_supplier' ) ;
#101 = ORIENTED_EDGE ( 'NONE', *, *, #197, .T. ) ;
#102 = CC_DESIGN_PERSON_AND_ORGANIZATION_ASSIGNMENT ( #82, #219, ( #25 ) ) ;
#103 = DATE_AND_TIME ( #78, #99 ) ;
#104 = PERSON_AND_ORGANIZATION_ROLE ( 'design_owner' ) ;
#105 = FACE_BOUND ( 'NONE', #58, .T. ) ;
#106 = DIRECTION ( 'NONE',  ( 0.0000000000000000000, 1.000000000000000000, 0.0000000000000000000 ) ) ;
#107 = CC_DESIGN_PERSON_AND_ORGANIZATION_ASSIGNMENT ( #153, #104, ( #143 ) ) ;
#108 = DIRECTION ( 'NONE',  ( -3.491481338843133355E-15, 1.224646799147353207E-16, -1.000000000000000000 ) ) ;
#109 = CIRCLE ( 'NONE', #37, 0.3699999999999988298 ) ;
#110 = EDGE_LOOP ( 'NONE', ( #180 ) ) ;
#111 = CC_DESIGN_DATE_AND_TIME_ASSIGNMENT ( #222, #141, ( #25 ) ) ;
#112 = DATE_AND_TIME ( #196, #128 ) ;
#113 = AXIS2_PLACEMENT_3D ( 'NONE', #39, #74, #98 ) ;
#114 = DIRECTION ( 'NONE',  ( 0.0000000000000000000, 1.000000000000000000, 0.0000000000000000000 ) ) ;
#115 = PERSON_AND_ORGANIZATION ( #205, #91 ) ;
#116 = ORIENTED_EDGE ( 'NONE', *, *, #51, .T. ) ;
#117 = EDGE_LOOP ( 'NONE', ( #120 ) ) ;
#118 = CALENDAR_DATE ( 2021, 8, 10 ) ;
#119 = FACE_OUTER_BOUND ( 'NONE', #117, .T. ) ;
#120 = ORIENTED_EDGE ( 'NONE', *, *, #197, .F. ) ;
#121 = CIRCLE ( 'NONE', #36, 0.3699999999999983857 ) ;
#122 = CC_DESIGN_SECURITY_CLASSIFICATION ( #133, ( #26 ) ) ;
#123 = FACE_OUTER_BOUND ( 'NONE', #215, .T. ) ;
#124 = CARTESIAN_POINT ( 'NONE',  ( 1.955229549752154679E-14, 2.774555597924417142E-33, 5.599999999999999645 ) ) ;
#125 = ADVANCED_FACE ( 'NONE', ( #126 ), #34, .T. ) ;
#126 = FACE_OUTER_BOUND ( 'NONE', #31, .T. ) ;
#127 = AXIS2_PLACEMENT_3D ( 'NONE', #69, #188, #146 ) ;
#128 = LOCAL_TIME ( 7, 14, 36.00000000000000000, #136 ) ;
#129 = FACE_OUTER_BOUND ( 'NONE', #150, .T. ) ;
#130 = DIRECTION ( 'NONE',  ( -3.491481338843133355E-15, 1.224646799147353207E-16, -1.000000000000000000 ) ) ;
#131 = CARTESIAN_POINT ( 'NONE',  ( 1.043952920314096936E-13, -3.661693929450586610E-15, 29.90000000000000213 ) ) ;
#132 = AXIS2_PLACEMENT_3D ( 'NONE', #2, #60, #114 ) ;
#133 = SECURITY_CLASSIFICATION ( '', '', #167 ) ;
#134 = PRODUCT_RELATED_PRODUCT_CATEGORY ( 'detail', '', ( #143 ) ) ;
#135 = ORIENTED_EDGE ( 'NONE', *, *, #149, .F. ) ;
#136 = COORDINATED_UNIVERSAL_TIME_OFFSET ( 1, 0, .AHEAD. ) ;
#137 = APPLICATION_PROTOCOL_DEFINITION ( 'international standard', 'config_control_design', 1994, #17 ) ;
#138 = CONICAL_SURFACE ( 'NONE', #132, 0.3999999999999989675, 0.7853981633974694843 ) ;
#139 = COORDINATED_UNIVERSAL_TIME_OFFSET ( 1, 0, .AHEAD. ) ;
#140 = CALENDAR_DATE ( 2021, 8, 10 ) ;
#141 = DATE_TIME_ROLE ( 'creation_date' ) ;
#142 = FACE_OUTER_BOUND ( 'NONE', #202, .T. ) ;
#143 = PRODUCT ( '55326', '55326', '', ( #181 ) ) ;
#144 = CARTESIAN_POINT ( 'NONE',  ( 1.955229549752154679E-14, -6.858022075225177566E-16, 5.599999999999999645 ) ) ;
#145 = ADVANCED_FACE ( 'NONE', ( #223 ), #157, .F. ) ;
#146 = DIRECTION ( 'NONE',  ( 0.0000000000000000000, -1.000000000000000000, 0.0000000000000000000 ) ) ;
#147 = AXIS2_PLACEMENT_3D ( 'NONE', #161, #189, #64 ) ;
#148 = AXIS2_PLACEMENT_3D ( 'NONE', #93, #108, #24 ) ;
#149 = EDGE_CURVE ( 'NONE', #200, #200, #72, .T. ) ;
#150 = EDGE_LOOP ( 'NONE', ( #101 ) ) ;
#151 = CIRCLE ( 'NONE', #148, 0.3699999999999988298 ) ;
#152 = DIRECTION ( 'NONE',  ( 1.000000000000000000, 0.0000000000000000000, 0.0000000000000000000 ) ) ;
#153 = PERSON_AND_ORGANIZATION ( #205, #91 ) ;
#154 = LOCAL_TIME ( 7, 14, 36.00000000000000000, #47 ) ;
#155 = DIRECTION ( 'NONE',  ( 0.0000000000000000000, 1.000000000000000000, 0.0000000000000000000 ) ) ;
#156 = PERSON_AND_ORGANIZATION ( #205, #91 ) ;
#157 = PLANE ( 'NONE',  #56 ) ;
#158 = ADVANCED_FACE ( 'NONE', ( #96, #129 ), #97, .T. ) ;
#159 = DIRECTION ( 'NONE',  ( -3.491481338843133355E-15, 1.224646799147353207E-16, -1.000000000000000000 ) ) ;
#160 = AXIS2_PLACEMENT_3D ( 'NONE', #3, #159, #106 ) ;
#161 = CARTESIAN_POINT ( 'NONE',  ( 1.955229549752154679E-14, 2.774555597924417142E-33, 5.599999999999999645 ) ) ;
#162 = APPROVAL_DATE_TIME ( #88, #165 ) ;
#163 = DATE_TIME_ROLE ( 'classification_date' ) ;
#164 = VERTEX_POINT ( 'NONE', #90 ) ;
#165 = APPROVAL ( #211, 'UNSPECIFIED' ) ;
#166 =( GEOMETRIC_REPRESENTATION_CONTEXT ( 3 ) GLOBAL_UNCERTAINTY_ASSIGNED_CONTEXT ( ( #213 ) ) GLOBAL_UNIT_ASSIGNED_CONTEXT ( ( #171, #169, #81 ) ) REPRESENTATION_CONTEXT ( 'NONE', 'WORKASPACE' ) );
#167 = SECURITY_CLASSIFICATION_LEVEL ( 'unclassified' ) ;
#168 = FACE_OUTER_BOUND ( 'NONE', #199, .T. ) ;
#169 =( NAMED_UNIT ( * ) PLANE_ANGLE_UNIT ( ) SI_UNIT ( $, .RADIAN. ) );
#170 = CLOSED_SHELL ( 'NONE', ( #145, #54, #158, #216, #183 ) ) ;
#171 =( LENGTH_UNIT ( ) NAMED_UNIT ( * ) SI_UNIT ( .MILLI., .METRE. ) );
#172 = CC_DESIGN_PERSON_AND_ORGANIZATION_ASSIGNMENT ( #85, #179, ( #26 ) ) ;
#173 = CARTESIAN_POINT ( 'NONE',  ( 0.0000000000000000000, 0.0000000000000000000, 0.0000000000000000000 ) ) ;
#174 = COORDINATED_UNIVERSAL_TIME_OFFSET ( 1, 0, .AHEAD. ) ;
#175 = DIRECTION ( 'NONE',  ( -3.491481338843133355E-15, 1.224646799147353207E-16, -1.000000000000000000 ) ) ;
#176 = CARTESIAN_POINT ( 'NONE',  ( 1.047444401652940007E-13, -3.673940397442059178E-15, 30.00000000000000000 ) ) ;
#177 = CIRCLE ( 'NONE', #13, 0.4999999999999991673 ) ;
#178 = EDGE_CURVE ( 'NONE', #42, #42, #151, .T. ) ;
#179 = PERSON_AND_ORGANIZATION_ROLE ( 'creator' ) ;
#180 = ORIENTED_EDGE ( 'NONE', *, *, #80, .T. ) ;
#181 = MECHANICAL_CONTEXT ( 'NONE', #17, 'mechanical' ) ;
#182 = AXIS2_PLACEMENT_3D ( 'NONE', #176, #22, #4 ) ;
#183 = ADVANCED_FACE ( 'NONE', ( #94 ), #8, .F. ) ;
#184 = DIRECTION ( 'NONE',  ( 0.0000000000000000000, 0.0000000000000000000, 1.000000000000000000 ) ) ;
#185 = DATE_AND_TIME ( #118, #154 ) ;
#186 = ORIENTED_EDGE ( 'NONE', *, *, #40, .F. ) ;
#187 = AXIS2_PLACEMENT_3D ( 'NONE', #46, #184, #152 ) ;
#188 = DIRECTION ( 'NONE',  ( 3.491481338843133355E-15, -1.224646799147353207E-16, 1.000000000000000000 ) ) ;
#189 = DIRECTION ( 'NONE',  ( 3.491481338843133355E-15, -1.224646799147353207E-16, 1.000000000000000000 ) ) ;
#190 = DIRECTION ( 'NONE',  ( -4.275831445896958607E-31, -1.000000000000000000, -1.224646799147353207E-16 ) ) ;
#191 = CC_DESIGN_PERSON_AND_ORGANIZATION_ASSIGNMENT ( #156, #100, ( #26 ) ) ;
#192 = VERTEX_POINT ( 'NONE', #12 ) ;
#193 = DESIGN_CONTEXT ( 'detailed design', #76, 'design' ) ;
#194 = ORIENTED_EDGE ( 'NONE', *, *, #51, .F. ) ;
#195 = ADVANCED_BREP_SHAPE_REPRESENTATION ( '55326', ( #95, #21, #187 ), #166 ) ;
#196 = CALENDAR_DATE ( 2021, 8, 10 ) ;
#197 = EDGE_CURVE ( 'NONE', #83, #83, #177, .T. ) ;
#198 = CONICAL_SURFACE ( 'NONE', #127, 0.4999999999999970579, 0.2617993877991433571 ) ;
#199 = EDGE_LOOP ( 'NONE', ( #14 ) ) ;
#200 = VERTEX_POINT ( 'NONE', #9 ) ;
#201 = APPROVAL_ROLE ( '' ) ;
#202 = EDGE_LOOP ( 'NONE', ( #28 ) ) ;
#203 = DIRECTION ( 'NONE',  ( -3.491481338843133355E-15, 1.224646799147353207E-16, -1.000000000000000000 ) ) ;
#204 = APPROVAL_PERSON_ORGANIZATION ( #62, #209, #201 ) ;
#205 = PERSON ( 'UNSPECIFIED', 'UNSPECIFIED', 'UNSPECIFIED', ('UNSPECIFIED'), ('UNSPECIFIED'), ('UNSPECIFIED') ) ;
#206 = SHAPE_DEFINITION_REPRESENTATION ( #65, #195 ) ;
#207 = CARTESIAN_POINT ( 'NONE',  ( 7.762206462747752626E-16, -2.722615525155473535E-17, 0.2223184290401987451 ) ) ;
#208 = FACE_OUTER_BOUND ( 'NONE', #10, .T. ) ;
#209 = APPROVAL ( #217, 'UNSPECIFIED' ) ;
#210 = CARTESIAN_POINT ( 'NONE',  ( 2.124624564505292079E-14, 0.4999999999999963363, 6.085166604983959004 ) ) ;
#211 = APPROVAL_STATUS ( 'not_yet_approved' ) ;
#212 = FACE_BOUND ( 'NONE', #11, .T. ) ;
#213 = UNCERTAINTY_MEASURE_WITH_UNIT (LENGTH_MEASURE( 1.000000000000000082E-05 ), #171, 'distance_accuracy_value', 'NONE');
#214 = CARTESIAN_POINT ( 'NONE',  ( 1.047444401652940007E-13, 2.999519565323652267E-33, 30.00000000000000000 ) ) ;
#215 = EDGE_LOOP ( 'NONE', ( #32 ) ) ;
#216 = ADVANCED_FACE ( 'NONE', ( #119, #212 ), #138, .T. ) ;
#217 = APPROVAL_STATUS ( 'not_yet_approved' ) ;
#218 = CARTESIAN_POINT ( 'NONE',  ( 1.955229549752154679E-14, 0.3699999999999981637, 5.599999999999999645 ) ) ;
#219 = PERSON_AND_ORGANIZATION_ROLE ( 'creator' ) ;
#220 = LOCAL_TIME ( 7, 14, 36.00000000000000000, #29 ) ;
#221 = APPLICATION_PROTOCOL_DEFINITION ( 'international standard', 'config_control_design', 1994, #76 ) ;
#222 = DATE_AND_TIME ( #140, #220 ) ;
#223 = FACE_OUTER_BOUND ( 'NONE', #110, .T. ) ;
ENDSEC;
END-ISO-10303-21;
