ISO-10303-21;
HEADER;
FILE_DESCRIPTION (( 'STEP AP203' ),
    '1' );
FILE_NAME ('55325.step',
    '2021-10-08T05:14:35',
    ( '' ),
    ( '' ),
    'SwSTEP 2.0',
    'SolidWorks 2019',
    '' );
FILE_SCHEMA (( 'CONFIG_CONTROL_DESIGN' ));
ENDSEC;

DATA;
#1 = EDGE_LOOP ( 'NONE', ( #89 ) ) ;
#2 = EDGE_LOOP ( 'NONE', ( #105 ) ) ;
#3 = CYLINDRICAL_SURFACE ( 'NONE', #174, 0.4999999999999980571 ) ;
#4 = DIRECTION ( 'NONE',  ( 0.0000000000000000000, 1.000000000000000000, 0.0000000000000000000 ) ) ;
#5 = ADVANCED_FACE ( 'NONE', ( #92, #158 ), #3, .T. ) ;
#6 = DIRECTION ( 'NONE',  ( -4.275831445896958607E-31, -1.000000000000000000, -1.224646799147353207E-16 ) ) ;
#7 = CLOSED_SHELL ( 'NONE', ( #60, #195, #83 ) ) ;
#8 = CARTESIAN_POINT ( 'NONE',  ( 2.131139757380412906E-14, -7.475032025450696284E-16, 6.103826859021804552 ) ) ;
#9 = DESIGN_CONTEXT ( 'detailed design', #96, 'design' ) ;
#10 = CARTESIAN_POINT ( 'NONE',  ( 1.047444401652940007E-13, 0.3999999999999953038, 30.00000000000000000 ) ) ;
#11 = MANIFOLD_SOLID_BREP ( 'Corps-Déplacer/Copier1[1]', #193 ) ;
#12 = PERSON_AND_ORGANIZATION ( #219, #111 ) ;
#13 = CC_DESIGN_PERSON_AND_ORGANIZATION_ASSIGNMENT ( #17, #100, ( #132 ) ) ;
#14 = DIRECTION ( 'NONE',  ( 1.000000000000000000, 0.0000000000000000000, 0.0000000000000000000 ) ) ;
#15 = DATE_AND_TIME ( #54, #46 ) ;
#16 = AXIS2_PLACEMENT_3D ( 'NONE', #30, #177, #126 ) ;
#17 = PERSON_AND_ORGANIZATION ( #219, #111 ) ;
#18 = AXIS2_PLACEMENT_3D ( 'NONE', #8, #78, #99 ) ;
#19 = CC_DESIGN_APPROVAL ( #221, ( #132 ) ) ;
#20 = ORIENTED_EDGE ( 'NONE', *, *, #113, .T. ) ;
#21 = EDGE_LOOP ( 'NONE', ( #173 ) ) ;
#22 = EDGE_LOOP ( 'NONE', ( #153 ) ) ;
#23 = AXIS2_PLACEMENT_3D ( 'NONE', #65, #197, #110 ) ;
#24 = CC_DESIGN_DATE_AND_TIME_ASSIGNMENT ( #223, #201, ( #191 ) ) ;
#25 = FACE_OUTER_BOUND ( 'NONE', #21, .T. ) ;
#26 = DIRECTION ( 'NONE',  ( -3.491481338843133355E-15, 1.224646799147353207E-16, -1.000000000000000000 ) ) ;
#27 = VERTEX_POINT ( 'NONE', #162 ) ;
#28 = AXIS2_PLACEMENT_3D ( 'NONE', #80, #198, #45 ) ;
#29 = CC_DESIGN_APPROVAL ( #127, ( #72 ) ) ;
#30 = CARTESIAN_POINT ( 'NONE',  ( 0.0000000000000000000, 0.0000000000000000000, 0.0000000000000000000 ) ) ;
#31 = FACE_OUTER_BOUND ( 'NONE', #1, .T. ) ;
#32 = APPROVAL_DATE_TIME ( #15, #127 ) ;
#33 = CIRCLE ( 'NONE', #154, 0.4999999999999991673 ) ;
#34 = DIRECTION ( 'NONE',  ( 0.0000000000000000000, 0.0000000000000000000, 1.000000000000000000 ) ) ;
#35 = APPLICATION_PROTOCOL_DEFINITION ( 'international standard', 'config_control_design', 1994, #138 ) ;
#36 = PERSON_AND_ORGANIZATION ( #219, #111 ) ;
#37 = EDGE_CURVE ( 'NONE', #179, #179, #135, .T. ) ;
#38 = PERSON_AND_ORGANIZATION_ROLE ( 'creator' ) ;
#39 = CALENDAR_DATE ( 2021, 8, 10 ) ;
#40 = DIRECTION ( 'NONE',  ( 4.275831445896958607E-31, 1.000000000000000000, 1.224646799147353207E-16 ) ) ;
#41 = EDGE_LOOP ( 'NONE', ( #139 ) ) ;
#42 = VERTEX_POINT ( 'NONE', #150 ) ;
#43 = CARTESIAN_POINT ( 'NONE',  ( 1.955229549752154679E-14, 2.737061603357875902E-33, 5.599999999999999645 ) ) ;
#44 = DIRECTION ( 'NONE',  ( -3.491481338843133355E-15, 1.224646799147353207E-16, -1.000000000000000000 ) ) ;
#45 = DIRECTION ( 'NONE',  ( 0.0000000000000000000, 1.000000000000000000, 0.0000000000000000000 ) ) ;
#46 = LOCAL_TIME ( 7, 14, 35.00000000000000000, #205 ) ;
#47 = VERTEX_POINT ( 'NONE', #114 ) ;
#48 = DATE_AND_TIME ( #102, #144 ) ;
#49 = PRODUCT_DEFINITION_SHAPE ( 'NONE', 'NONE',  #191 ) ;
#50 = CC_DESIGN_PERSON_AND_ORGANIZATION_ASSIGNMENT ( #188, #38, ( #72 ) ) ;
#51 = APPROVAL_ROLE ( '' ) ;
#52 = AXIS2_PLACEMENT_3D ( 'NONE', #43, #211, #129 ) ;
#53 = PERSON_AND_ORGANIZATION ( #219, #111 ) ;
#54 = CALENDAR_DATE ( 2021, 8, 10 ) ;
#55 = CC_DESIGN_PERSON_AND_ORGANIZATION_ASSIGNMENT ( #12, #85, ( #72 ) ) ;
#56 = DATE_AND_TIME ( #39, #58 ) ;
#57 = ORIENTED_EDGE ( 'NONE', *, *, #137, .T. ) ;
#58 = LOCAL_TIME ( 7, 14, 35.00000000000000000, #104 ) ;
#59 = EDGE_LOOP ( 'NONE', ( #57 ) ) ;
#60 = ADVANCED_FACE ( 'NONE', ( #82 ), #106, .T. ) ;
#61 = PLANE ( 'NONE',  #52 ) ;
#62 =( GEOMETRIC_REPRESENTATION_CONTEXT ( 3 ) GLOBAL_UNCERTAINTY_ASSIGNED_CONTEXT ( ( #213 ) ) GLOBAL_UNIT_ASSIGNED_CONTEXT ( ( #169, #167, #68 ) ) REPRESENTATION_CONTEXT ( 'NONE', 'WORKASPACE' ) );
#63 = FACE_OUTER_BOUND ( 'NONE', #2, .T. ) ;
#64 = APPROVAL_PERSON_ORGANIZATION ( #168, #127, #73 ) ;
#65 = CARTESIAN_POINT ( 'NONE',  ( 2.131139757380412906E-14, -7.475032025450696284E-16, 6.103826859021804552 ) ) ;
#66 = DIRECTION ( 'NONE',  ( 3.491481338843133355E-15, -1.224646799147353207E-16, 1.000000000000000000 ) ) ;
#67 = CARTESIAN_POINT ( 'NONE',  ( 1.955229549752154679E-14, 2.737061603357875902E-33, 5.599999999999999645 ) ) ;
#68 =( NAMED_UNIT ( * ) SI_UNIT ( $, .STERADIAN. ) SOLID_ANGLE_UNIT ( ) );
#69 = DATE_TIME_ROLE ( 'classification_date' ) ;
#70 = VERTEX_POINT ( 'NONE', #117 ) ;
#71 = AXIS2_PLACEMENT_3D ( 'NONE', #146, #44, #214 ) ;
#72 = PRODUCT_DEFINITION_FORMATION_WITH_SPECIFIED_SOURCE ( 'ANY', '', #151, .NOT_KNOWN. ) ;
#73 = APPROVAL_ROLE ( '' ) ;
#74 = EDGE_LOOP ( 'NONE', ( #20 ) ) ;
#75 = ORIENTED_EDGE ( 'NONE', *, *, #200, .T. ) ;
#76 = EDGE_LOOP ( 'NONE', ( #75 ) ) ;
#77 = CARTESIAN_POINT ( 'NONE',  ( 0.0000000000000000000, 0.0000000000000000000, 0.0000000000000000000 ) ) ;
#78 = DIRECTION ( 'NONE',  ( -3.491481338843133355E-15, 1.224646799147353207E-16, -1.000000000000000000 ) ) ;
#79 = AXIS2_PLACEMENT_3D ( 'NONE', #93, #128, #182 ) ;
#80 = CARTESIAN_POINT ( 'NONE',  ( 1.955229549752154679E-14, -6.858022075225177566E-16, 5.599999999999999645 ) ) ;
#81 = PLANE ( 'NONE',  #71 ) ;
#82 = FACE_OUTER_BOUND ( 'NONE', #74, .T. ) ;
#83 = ADVANCED_FACE ( 'NONE', ( #63 ), #216, .T. ) ;
#84 = DIRECTION ( 'NONE',  ( 0.0000000000000000000, 1.000000000000000000, 0.0000000000000000000 ) ) ;
#85 = PERSON_AND_ORGANIZATION_ROLE ( 'design_supplier' ) ;
#86 = PERSON_AND_ORGANIZATION ( #219, #111 ) ;
#87 = MANIFOLD_SOLID_BREP ( 'Corps-Déplacer/Copier1[2]', #7 ) ;
#88 = APPROVAL ( #118, 'UNSPECIFIED' ) ;
#89 = ORIENTED_EDGE ( 'NONE', *, *, #37, .T. ) ;
#90 = CIRCLE ( 'NONE', #18, 0.4999999999999970579 ) ;
#91 = CONICAL_SURFACE ( 'NONE', #120, 0.3999999999999989675, 0.7853981633974694843 ) ;
#92 = FACE_OUTER_BOUND ( 'NONE', #125, .T. ) ;
#93 = CARTESIAN_POINT ( 'NONE',  ( 7.657311780818728808E-16, -2.685823423464183185E-17, 0.2193141259450609171 ) ) ;
#94 = CARTESIAN_POINT ( 'NONE',  ( 1.955229549752154679E-14, -6.858022075225177566E-16, 5.599999999999999645 ) ) ;
#95 = CARTESIAN_POINT ( 'NONE',  ( 1.955229549752154679E-14, 0.3649999999999987699, 5.599999999999999645 ) ) ;
#96 = APPLICATION_CONTEXT ( 'configuration controlled 3d designs of mechanical parts and assemblies' ) ;
#97 = DIRECTION ( 'NONE',  ( 0.0000000000000000000, 1.000000000000000000, 0.0000000000000000000 ) ) ;
#98 = ADVANCED_FACE ( 'NONE', ( #175 ), #81, .F. ) ;
#99 = DIRECTION ( 'NONE',  ( 0.0000000000000000000, 1.000000000000000000, 0.0000000000000000000 ) ) ;
#100 = PERSON_AND_ORGANIZATION_ROLE ( 'classification_officer' ) ;
#101 = COORDINATED_UNIVERSAL_TIME_OFFSET ( 1, 0, .AHEAD. ) ;
#102 = CALENDAR_DATE ( 2021, 8, 10 ) ;
#103 = SECURITY_CLASSIFICATION_LEVEL ( 'unclassified' ) ;
#104 = COORDINATED_UNIVERSAL_TIME_OFFSET ( 1, 0, .AHEAD. ) ;
#105 = ORIENTED_EDGE ( 'NONE', *, *, #137, .F. ) ;
#106 = CONICAL_SURFACE ( 'NONE', #189, 0.3649999999999983258, 1.029744258676649649 ) ;
#107 = CC_DESIGN_SECURITY_CLASSIFICATION ( #132, ( #72 ) ) ;
#108 = FACE_OUTER_BOUND ( 'NONE', #59, .T. ) ;
#109 = CARTESIAN_POINT ( 'NONE',  ( 1.043952920314096936E-13, -3.661693929450586610E-15, 29.90000000000000213 ) ) ;
#110 = DIRECTION ( 'NONE',  ( 0.0000000000000000000, -1.000000000000000000, 0.0000000000000000000 ) ) ;
#111 = ORGANIZATION ( 'UNSPECIFIED', 'UNSPECIFIED', '' ) ;
#112 = FACE_OUTER_BOUND ( 'NONE', #22, .T. ) ;
#113 = EDGE_CURVE ( 'NONE', #27, #27, #116, .T. ) ;
#114 = CARTESIAN_POINT ( 'NONE',  ( 1.955229549752154679E-14, 0.3649999999999987699, 5.599999999999999645 ) ) ;
#115 = CC_DESIGN_DATE_AND_TIME_ASSIGNMENT ( #149, #69, ( #132 ) ) ;
#116 = CIRCLE ( 'NONE', #79, 0.3649999999999983258 ) ;
#117 = CARTESIAN_POINT ( 'NONE',  ( 2.131139757380412906E-14, 0.4999999999999963363, 6.103826859021804552 ) ) ;
#118 = APPROVAL_STATUS ( 'not_yet_approved' ) ;
#119 = ADVANCED_FACE ( 'NONE', ( #31 ), #61, .F. ) ;
#120 = AXIS2_PLACEMENT_3D ( 'NONE', #181, #26, #84 ) ;
#121 = SHAPE_DEFINITION_REPRESENTATION ( #49, #178 ) ;
#122 = ORIENTED_EDGE ( 'NONE', *, *, #183, .F. ) ;
#123 = EDGE_LOOP ( 'NONE', ( #156 ) ) ;
#124 = EDGE_LOOP ( 'NONE', ( #209 ) ) ;
#125 = EDGE_LOOP ( 'NONE', ( #155 ) ) ;
#126 = DIRECTION ( 'NONE',  ( 4.275831445896958607E-31, 1.000000000000000000, 1.224646799147353207E-16 ) ) ;
#127 = APPROVAL ( #184, 'UNSPECIFIED' ) ;
#128 = DIRECTION ( 'NONE',  ( -3.491481338843133355E-15, 1.224646799147353207E-16, -1.000000000000000000 ) ) ;
#129 = DIRECTION ( 'NONE',  ( -4.275831445896958607E-31, -1.000000000000000000, -1.224646799147353207E-16 ) ) ;
#130 = DIRECTION ( 'NONE',  ( 0.0000000000000000000, 1.000000000000000000, 0.0000000000000000000 ) ) ;
#131 = DIRECTION ( 'NONE',  ( -3.491481338843133355E-15, 1.224646799147353207E-16, -1.000000000000000000 ) ) ;
#132 = SECURITY_CLASSIFICATION ( '', '', #103 ) ;
#133 = PERSON_AND_ORGANIZATION ( #219, #111 ) ;
#134 = PERSON_AND_ORGANIZATION_ROLE ( 'design_owner' ) ;
#135 = CIRCLE ( 'NONE', #217, 0.3649999999999994915 ) ;
#136 = MECHANICAL_CONTEXT ( 'NONE', #138, 'mechanical' ) ;
#137 = EDGE_CURVE ( 'NONE', #47, #47, #161, .T. ) ;
#138 = APPLICATION_CONTEXT ( 'configuration controlled 3d designs of mechanical parts and assemblies' ) ;
#139 = ORIENTED_EDGE ( 'NONE', *, *, #183, .T. ) ;
#140 = CONICAL_SURFACE ( 'NONE', #23, 0.4999999999999970579, 0.2617993877991418028 ) ;
#141 = CC_DESIGN_PERSON_AND_ORGANIZATION_ASSIGNMENT ( #36, #134, ( #151 ) ) ;
#142 = FACE_BOUND ( 'NONE', #41, .T. ) ;
#143 = AXIS2_PLACEMENT_3D ( 'NONE', #222, #34, #14 ) ;
#144 = LOCAL_TIME ( 7, 14, 35.00000000000000000, #220 ) ;
#145 = DIRECTION ( 'NONE',  ( -3.491481338843133355E-15, 1.224646799147353207E-16, -1.000000000000000000 ) ) ;
#146 = CARTESIAN_POINT ( 'NONE',  ( 1.047444401652940007E-13, 2.999519565323652267E-33, 30.00000000000000000 ) ) ;
#147 = DIRECTION ( 'NONE',  ( 3.491481338843133355E-15, -1.224646799147353207E-16, 1.000000000000000000 ) ) ;
#148 = COORDINATED_UNIVERSAL_TIME_OFFSET ( 1, 0, .AHEAD. ) ;
#149 = DATE_AND_TIME ( #166, #157 ) ;
#150 = CARTESIAN_POINT ( 'NONE',  ( 1.043952920314096936E-13, 0.4999999999999954481, 29.90000000000000213 ) ) ;
#151 = PRODUCT ( '55325', '55325', '', ( #136 ) ) ;
#152 = CALENDAR_DATE ( 2021, 8, 10 ) ;
#153 = ORIENTED_EDGE ( 'NONE', *, *, #113, .F. ) ;
#154 = AXIS2_PLACEMENT_3D ( 'NONE', #109, #145, #97 ) ;
#155 = ORIENTED_EDGE ( 'NONE', *, *, #208, .F. ) ;
#156 = ORIENTED_EDGE ( 'NONE', *, *, #208, .T. ) ;
#157 = LOCAL_TIME ( 7, 14, 35.00000000000000000, #148 ) ;
#158 = FACE_OUTER_BOUND ( 'NONE', #76, .T. ) ;
#159 = CARTESIAN_POINT ( 'NONE',  ( 1.047444401652940007E-13, -3.673940397442059178E-15, 30.00000000000000000 ) ) ;
#160 = DIRECTION ( 'NONE',  ( -3.491481338843133355E-15, 1.224646799147353207E-16, -1.000000000000000000 ) ) ;
#161 = CIRCLE ( 'NONE', #28, 0.3649999999999994915 ) ;
#162 = CARTESIAN_POINT ( 'NONE',  ( 7.657311780818730781E-16, 0.3649999999999983258, 0.2193141259450609726 ) ) ;
#163 = VERTEX_POINT ( 'NONE', #10 ) ;
#164 = AXIS2_PLACEMENT_3D ( 'NONE', #159, #131, #4 ) ;
#165 = AXIS2_PLACEMENT_3D ( 'NONE', #67, #66, #6 ) ;
#166 = CALENDAR_DATE ( 2021, 8, 10 ) ;
#167 =( NAMED_UNIT ( * ) PLANE_ANGLE_UNIT ( ) SI_UNIT ( $, .RADIAN. ) );
#168 = PERSON_AND_ORGANIZATION ( #219, #111 ) ;
#169 =( LENGTH_UNIT ( ) NAMED_UNIT ( * ) SI_UNIT ( .MILLI., .METRE. ) );
#170 = APPROVAL_PERSON_ORGANIZATION ( #133, #221, #51 ) ;
#171 = APPROVAL_DATE_TIME ( #56, #221 ) ;
#172 = APPROVAL_PERSON_ORGANIZATION ( #86, #88, #185 ) ;
#173 = ORIENTED_EDGE ( 'NONE', *, *, #200, .F. ) ;
#174 = AXIS2_PLACEMENT_3D ( 'NONE', #77, #192, #40 ) ;
#175 = FACE_OUTER_BOUND ( 'NONE', #207, .T. ) ;
#176 = PRODUCT_RELATED_PRODUCT_CATEGORY ( 'detail', '', ( #151 ) ) ;
#177 = DIRECTION ( 'NONE',  ( -3.491481338843133355E-15, 1.224646799147353207E-16, -1.000000000000000000 ) ) ;
#178 = ADVANCED_BREP_SHAPE_REPRESENTATION ( '55325', ( #11, #87, #143 ), #62 ) ;
#179 = VERTEX_POINT ( 'NONE', #95 ) ;
#180 = CIRCLE ( 'NONE', #164, 0.3999999999999989675 ) ;
#181 = CARTESIAN_POINT ( 'NONE',  ( 1.047444401652940007E-13, -3.673940397442059178E-15, 30.00000000000000000 ) ) ;
#182 = DIRECTION ( 'NONE',  ( 5.276520395581492409E-31, 1.000000000000000000, 1.485208455459601960E-16 ) ) ;
#183 = EDGE_CURVE ( 'NONE', #163, #163, #180, .T. ) ;
#184 = APPROVAL_STATUS ( 'not_yet_approved' ) ;
#185 = APPROVAL_ROLE ( '' ) ;
#186 = ADVANCED_FACE ( 'NONE', ( #25, #142 ), #91, .T. ) ;
#187 = PERSON_AND_ORGANIZATION_ROLE ( 'creator' ) ;
#188 = PERSON_AND_ORGANIZATION ( #219, #111 ) ;
#189 = AXIS2_PLACEMENT_3D ( 'NONE', #210, #147, #196 ) ;
#190 = CC_DESIGN_APPROVAL ( #88, ( #191 ) ) ;
#191 = PRODUCT_DEFINITION ( 'UNKNOWN', '', #72, #9 ) ;
#192 = DIRECTION ( 'NONE',  ( -3.491481338843133355E-15, 1.224646799147353207E-16, -1.000000000000000000 ) ) ;
#193 = CLOSED_SHELL ( 'NONE', ( #119, #215, #5, #186, #98 ) ) ;
#194 = FACE_OUTER_BOUND ( 'NONE', #123, .T. ) ;
#195 = ADVANCED_FACE ( 'NONE', ( #112, #108 ), #212, .T. ) ;
#196 = DIRECTION ( 'NONE',  ( -5.276520395581492409E-31, -1.000000000000000000, -1.485208455459601960E-16 ) ) ;
#197 = DIRECTION ( 'NONE',  ( 3.491481338843133355E-15, -1.224646799147353207E-16, 1.000000000000000000 ) ) ;
#198 = DIRECTION ( 'NONE',  ( -3.491481338843133355E-15, 1.224646799147353207E-16, -1.000000000000000000 ) ) ;
#199 = FACE_BOUND ( 'NONE', #124, .T. ) ;
#200 = EDGE_CURVE ( 'NONE', #42, #42, #33, .T. ) ;
#201 = DATE_TIME_ROLE ( 'creation_date' ) ;
#202 = APPROVAL_STATUS ( 'not_yet_approved' ) ;
#203 = APPLICATION_PROTOCOL_DEFINITION ( 'international standard', 'config_control_design', 1994, #96 ) ;
#204 = APPROVAL_DATE_TIME ( #48, #88 ) ;
#205 = COORDINATED_UNIVERSAL_TIME_OFFSET ( 1, 0, .AHEAD. ) ;
#206 = CC_DESIGN_PERSON_AND_ORGANIZATION_ASSIGNMENT ( #53, #187, ( #191 ) ) ;
#207 = EDGE_LOOP ( 'NONE', ( #122 ) ) ;
#208 = EDGE_CURVE ( 'NONE', #70, #70, #90, .T. ) ;
#209 = ORIENTED_EDGE ( 'NONE', *, *, #37, .F. ) ;
#210 = CARTESIAN_POINT ( 'NONE',  ( 7.657311780818728808E-16, -2.685823423464183185E-17, 0.2193141259450609171 ) ) ;
#211 = DIRECTION ( 'NONE',  ( 3.491481338843133355E-15, -1.224646799147353207E-16, 1.000000000000000000 ) ) ;
#212 = CYLINDRICAL_SURFACE ( 'NONE', #16, 0.3649999999999988809 ) ;
#213 = UNCERTAINTY_MEASURE_WITH_UNIT (LENGTH_MEASURE( 1.000000000000000082E-05 ), #169, 'distance_accuracy_value', 'NONE');
#214 = DIRECTION ( 'NONE',  ( 4.275831445896958607E-31, 1.000000000000000000, 1.224646799147353207E-16 ) ) ;
#215 = ADVANCED_FACE ( 'NONE', ( #199, #194 ), #140, .T. ) ;
#216 = PLANE ( 'NONE',  #165 ) ;
#217 = AXIS2_PLACEMENT_3D ( 'NONE', #94, #160, #130 ) ;
#218 = LOCAL_TIME ( 7, 14, 35.00000000000000000, #101 ) ;
#219 = PERSON ( 'UNSPECIFIED', 'UNSPECIFIED', 'UNSPECIFIED', ('UNSPECIFIED'), ('UNSPECIFIED'), ('UNSPECIFIED') ) ;
#220 = COORDINATED_UNIVERSAL_TIME_OFFSET ( 1, 0, .AHEAD. ) ;
#221 = APPROVAL ( #202, 'UNSPECIFIED' ) ;
#222 = CARTESIAN_POINT ( 'NONE',  ( 0.0000000000000000000, 0.0000000000000000000, 0.0000000000000000000 ) ) ;
#223 = DATE_AND_TIME ( #152, #218 ) ;
ENDSEC;
END-ISO-10303-21;
