ISO-10303-21;
HEADER;
FILE_DESCRIPTION (( 'STEP AP203' ),
    '1' );
FILE_NAME ('55324.step',
    '2021-10-08T05:14:35',
    ( '' ),
    ( '' ),
    'SwSTEP 2.0',
    'SolidWorks 2019',
    '' );
FILE_SCHEMA (( 'CONFIG_CONTROL_DESIGN' ));
ENDSEC;

DATA;
#1 = PERSON_AND_ORGANIZATION ( #215, #117 ) ;
#2 = EDGE_CURVE ( 'NONE', #108, #108, #187, .T. ) ;
#3 = EDGE_LOOP ( 'NONE', ( #185 ) ) ;
#4 = SHAPE_DEFINITION_REPRESENTATION ( #91, #102 ) ;
#5 = LOCAL_TIME ( 7, 14, 35.00000000000000000, #127 ) ;
#6 = FACE_BOUND ( 'NONE', #30, .T. ) ;
#7 = CC_DESIGN_PERSON_AND_ORGANIZATION_ASSIGNMENT ( #52, #124, ( #149 ) ) ;
#8 = CARTESIAN_POINT ( 'NONE',  ( 1.047444401652940007E-13, 0.3999999999999953038, 30.00000000000000000 ) ) ;
#9 = APPLICATION_CONTEXT ( 'configuration controlled 3d designs of mechanical parts and assemblies' ) ;
#10 = AXIS2_PLACEMENT_3D ( 'NONE', #220, #120, #138 ) ;
#11 = CC_DESIGN_PERSON_AND_ORGANIZATION_ASSIGNMENT ( #136, #223, ( #100 ) ) ;
#12 = MANIFOLD_SOLID_BREP ( 'Corps-Déplacer/Copier1[1]', #67 ) ;
#13 = CLOSED_SHELL ( 'NONE', ( #57, #118, #28 ) ) ;
#14 = CARTESIAN_POINT ( 'NONE',  ( 7.552417098889704005E-16, -2.649031321772892836E-17, 0.2163098228499230613 ) ) ;
#15 = CONICAL_SURFACE ( 'NONE', #144, 0.4999999999999970579, 0.2617993877991426910 ) ;
#16 = APPROVAL_PERSON_ORGANIZATION ( #113, #119, #159 ) ;
#17 = PRODUCT_RELATED_PRODUCT_CATEGORY ( 'detail', '', ( #200 ) ) ;
#18 = PERSON_AND_ORGANIZATION_ROLE ( 'creator' ) ;
#19 = PLANE ( 'NONE',  #150 ) ;
#20 = ADVANCED_FACE ( 'NONE', ( #190, #33 ), #15, .T. ) ;
#21 = ORIENTED_EDGE ( 'NONE', *, *, #167, .F. ) ;
#22 = APPLICATION_PROTOCOL_DEFINITION ( 'international standard', 'config_control_design', 1994, #9 ) ;
#23 = FACE_OUTER_BOUND ( 'NONE', #62, .T. ) ;
#24 = APPLICATION_CONTEXT ( 'configuration controlled 3d designs of mechanical parts and assemblies' ) ;
#25 = DIRECTION ( 'NONE',  ( 0.0000000000000000000, 1.000000000000000000, 0.0000000000000000000 ) ) ;
#26 = CALENDAR_DATE ( 2021, 8, 10 ) ;
#27 = UNCERTAINTY_MEASURE_WITH_UNIT (LENGTH_MEASURE( 1.000000000000000082E-05 ), #210, 'distance_accuracy_value', 'NONE');
#28 = ADVANCED_FACE ( 'NONE', ( #23 ), #19, .T. ) ;
#29 = AXIS2_PLACEMENT_3D ( 'NONE', #153, #112, #195 ) ;
#30 = EDGE_LOOP ( 'NONE', ( #60 ) ) ;
#31 = AXIS2_PLACEMENT_3D ( 'NONE', #76, #39, #172 ) ;
#32 = CARTESIAN_POINT ( 'NONE',  ( 2.137654950255533733E-14, 0.4999999999999963363, 6.122487113059649211 ) ) ;
#33 = FACE_OUTER_BOUND ( 'NONE', #214, .T. ) ;
#34 = AXIS2_PLACEMENT_3D ( 'NONE', #107, #192, #179 ) ;
#35 = ORIENTED_EDGE ( 'NONE', *, *, #81, .T. ) ;
#36 = COORDINATED_UNIVERSAL_TIME_OFFSET ( 1, 0, .AHEAD. ) ;
#37 = CALENDAR_DATE ( 2021, 8, 10 ) ;
#38 = FACE_OUTER_BOUND ( 'NONE', #168, .T. ) ;
#39 = DIRECTION ( 'NONE',  ( -3.491481338843133355E-15, 1.224646799147353207E-16, -1.000000000000000000 ) ) ;
#40 = CIRCLE ( 'NONE', #183, 0.3599999999999990430 ) ;
#41 = CARTESIAN_POINT ( 'NONE',  ( 1.955229549752154679E-14, 2.699567608791325767E-33, 5.599999999999999645 ) ) ;
#42 = AXIS2_PLACEMENT_3D ( 'NONE', #152, #110, #25 ) ;
#43 = ADVANCED_FACE ( 'NONE', ( #176 ), #47, .F. ) ;
#44 = APPROVAL_PERSON_ORGANIZATION ( #1, #205, #56 ) ;
#45 = CARTESIAN_POINT ( 'NONE',  ( 2.137654950255533733E-14, -7.497884245829419492E-16, 6.122487113059649211 ) ) ;
#46 = FACE_OUTER_BOUND ( 'NONE', #161, .T. ) ;
#47 = PLANE ( 'NONE',  #49 ) ;
#48 = LOCAL_TIME ( 7, 14, 35.00000000000000000, #221 ) ;
#49 = AXIS2_PLACEMENT_3D ( 'NONE', #134, #222, #203 ) ;
#50 = DATE_AND_TIME ( #26, #5 ) ;
#51 = CYLINDRICAL_SURFACE ( 'NONE', #83, 0.4999999999999980571 ) ;
#52 = PERSON_AND_ORGANIZATION ( #215, #117 ) ;
#53 =( NAMED_UNIT ( * ) PLANE_ANGLE_UNIT ( ) SI_UNIT ( $, .RADIAN. ) );
#54 = CC_DESIGN_APPROVAL ( #119, ( #184 ) ) ;
#55 = APPROVAL_DATE_TIME ( #164, #205 ) ;
#56 = APPROVAL_ROLE ( '' ) ;
#57 = ADVANCED_FACE ( 'NONE', ( #72 ), #132, .T. ) ;
#58 = ORIENTED_EDGE ( 'NONE', *, *, #171, .T. ) ;
#59 = CIRCLE ( 'NONE', #201, 0.3599999999999982658 ) ;
#60 = ORIENTED_EDGE ( 'NONE', *, *, #218, .T. ) ;
#61 = CARTESIAN_POINT ( 'NONE',  ( 1.955229549752154679E-14, 0.3599999999999983213, 5.599999999999999645 ) ) ;
#62 = EDGE_LOOP ( 'NONE', ( #85 ) ) ;
#63 = AXIS2_PLACEMENT_3D ( 'NONE', #130, #213, #94 ) ;
#64 = DATE_AND_TIME ( #37, #148 ) ;
#65 = DIRECTION ( 'NONE',  ( -4.275831445896958607E-31, -1.000000000000000000, -1.224646799147353207E-16 ) ) ;
#66 = DIRECTION ( 'NONE',  ( 3.491481338843133355E-15, -1.224646799147353207E-16, 1.000000000000000000 ) ) ;
#67 = CLOSED_SHELL ( 'NONE', ( #93, #20, #207, #131, #43 ) ) ;
#68 = DATE_TIME_ROLE ( 'creation_date' ) ;
#69 = VERTEX_POINT ( 'NONE', #147 ) ;
#70 = CARTESIAN_POINT ( 'NONE',  ( 2.137654950255533733E-14, -7.497884245829419492E-16, 6.122487113059649211 ) ) ;
#71 = CALENDAR_DATE ( 2021, 8, 10 ) ;
#72 = FACE_OUTER_BOUND ( 'NONE', #133, .T. ) ;
#73 = EDGE_LOOP ( 'NONE', ( #35 ) ) ;
#74 = APPROVAL_PERSON_ORGANIZATION ( #103, #126, #139 ) ;
#75 = CYLINDRICAL_SURFACE ( 'NONE', #63, 0.3599999999999986544 ) ;
#76 = CARTESIAN_POINT ( 'NONE',  ( 1.047444401652940007E-13, -3.673940397442059178E-15, 30.00000000000000000 ) ) ;
#77 = DESIGN_CONTEXT ( 'detailed design', #24, 'design' ) ;
#78 = CC_DESIGN_PERSON_AND_ORGANIZATION_ASSIGNMENT ( #206, #209, ( #100 ) ) ;
#79 = VERTEX_POINT ( 'NONE', #61 ) ;
#80 = VERTEX_POINT ( 'NONE', #202 ) ;
#81 = EDGE_CURVE ( 'NONE', #69, #69, #40, .T. ) ;
#82 = CC_DESIGN_APPROVAL ( #205, ( #149 ) ) ;
#83 = AXIS2_PLACEMENT_3D ( 'NONE', #191, #101, #208 ) ;
#84 = MANIFOLD_SOLID_BREP ( 'Corps-Déplacer/Copier1[2]', #13 ) ;
#85 = ORIENTED_EDGE ( 'NONE', *, *, #171, .F. ) ;
#86 = APPROVAL_STATUS ( 'not_yet_approved' ) ;
#87 = PERSON_AND_ORGANIZATION ( #215, #117 ) ;
#88 = DIRECTION ( 'NONE',  ( 3.491481338843133355E-15, -1.224646799147353207E-16, 1.000000000000000000 ) ) ;
#89 = DATE_TIME_ROLE ( 'classification_date' ) ;
#90 = COORDINATED_UNIVERSAL_TIME_OFFSET ( 1, 0, .AHEAD. ) ;
#91 = PRODUCT_DEFINITION_SHAPE ( 'NONE', 'NONE',  #184 ) ;
#92 = DIRECTION ( 'NONE',  ( 0.0000000000000000000, 1.000000000000000000, 0.0000000000000000000 ) ) ;
#93 = ADVANCED_FACE ( 'NONE', ( #165 ), #216, .F. ) ;
#94 = DIRECTION ( 'NONE',  ( 4.275831445896958607E-31, 1.000000000000000000, 1.224646799147353207E-16 ) ) ;
#95 = ORIENTED_EDGE ( 'NONE', *, *, #2, .F. ) ;
#96 = VERTEX_POINT ( 'NONE', #32 ) ;
#97 = CC_DESIGN_SECURITY_CLASSIFICATION ( #149, ( #100 ) ) ;
#98 = AXIS2_PLACEMENT_3D ( 'NONE', #41, #166, #146 ) ;
#99 = DIRECTION ( 'NONE',  ( -3.491481338843133355E-15, 1.224646799147353207E-16, -1.000000000000000000 ) ) ;
#100 = PRODUCT_DEFINITION_FORMATION_WITH_SPECIFIED_SOURCE ( 'ANY', '', #200, .NOT_KNOWN. ) ;
#101 = DIRECTION ( 'NONE',  ( -3.491481338843133355E-15, 1.224646799147353207E-16, -1.000000000000000000 ) ) ;
#102 = ADVANCED_BREP_SHAPE_REPRESENTATION ( '55324', ( #12, #84, #29 ), #128 ) ;
#103 = PERSON_AND_ORGANIZATION ( #215, #117 ) ;
#104 = DATE_AND_TIME ( #71, #48 ) ;
#105 = DATE_AND_TIME ( #204, #143 ) ;
#106 = DIRECTION ( 'NONE',  ( -3.491481338843133355E-15, 1.224646799147353207E-16, -1.000000000000000000 ) ) ;
#107 = CARTESIAN_POINT ( 'NONE',  ( 7.552417098889704005E-16, -2.649031321772892836E-17, 0.2163098228499230613 ) ) ;
#108 = VERTEX_POINT ( 'NONE', #156 ) ;
#109 = CC_DESIGN_PERSON_AND_ORGANIZATION_ASSIGNMENT ( #87, #194, ( #200 ) ) ;
#110 = DIRECTION ( 'NONE',  ( -3.491481338843133355E-15, 1.224646799147353207E-16, -1.000000000000000000 ) ) ;
#111 = CIRCLE ( 'NONE', #10, 0.3599999999999990430 ) ;
#112 = DIRECTION ( 'NONE',  ( 0.0000000000000000000, 0.0000000000000000000, 1.000000000000000000 ) ) ;
#113 = PERSON_AND_ORGANIZATION ( #215, #117 ) ;
#114 = FACE_OUTER_BOUND ( 'NONE', #217, .T. ) ;
#115 = EDGE_LOOP ( 'NONE', ( #197 ) ) ;
#116 = CC_DESIGN_DATE_AND_TIME_ASSIGNMENT ( #104, #68, ( #184 ) ) ;
#117 = ORGANIZATION ( 'UNSPECIFIED', 'UNSPECIFIED', '' ) ;
#118 = ADVANCED_FACE ( 'NONE', ( #142, #38 ), #75, .T. ) ;
#119 = APPROVAL ( #129, 'UNSPECIFIED' ) ;
#120 = DIRECTION ( 'NONE',  ( -3.491481338843133355E-15, 1.224646799147353207E-16, -1.000000000000000000 ) ) ;
#121 = PERSON_AND_ORGANIZATION ( #215, #117 ) ;
#122 = ORIENTED_EDGE ( 'NONE', *, *, #2, .T. ) ;
#123 = FACE_OUTER_BOUND ( 'NONE', #186, .T. ) ;
#124 = PERSON_AND_ORGANIZATION_ROLE ( 'classification_officer' ) ;
#125 = CARTESIAN_POINT ( 'NONE',  ( 1.047444401652940007E-13, -3.673940397442059178E-15, 30.00000000000000000 ) ) ;
#126 = APPROVAL ( #86, 'UNSPECIFIED' ) ;
#127 = COORDINATED_UNIVERSAL_TIME_OFFSET ( 1, 0, .AHEAD. ) ;
#128 =( GEOMETRIC_REPRESENTATION_CONTEXT ( 3 ) GLOBAL_UNCERTAINTY_ASSIGNED_CONTEXT ( ( #27 ) ) GLOBAL_UNIT_ASSIGNED_CONTEXT ( ( #210, #53, #181 ) ) REPRESENTATION_CONTEXT ( 'NONE', 'WORKASPACE' ) );
#129 = APPROVAL_STATUS ( 'not_yet_approved' ) ;
#130 = CARTESIAN_POINT ( 'NONE',  ( 0.0000000000000000000, 0.0000000000000000000, 0.0000000000000000000 ) ) ;
#131 = ADVANCED_FACE ( 'NONE', ( #114, #6 ), #198, .T. ) ;
#132 = CONICAL_SURFACE ( 'NONE', #34, 0.3599999999999982658, 1.029744258676649649 ) ;
#133 = EDGE_LOOP ( 'NONE', ( #158 ) ) ;
#134 = CARTESIAN_POINT ( 'NONE',  ( 1.047444401652940007E-13, 2.999519565323652267E-33, 30.00000000000000000 ) ) ;
#135 = DIRECTION ( 'NONE',  ( 0.0000000000000000000, -1.000000000000000000, 0.0000000000000000000 ) ) ;
#136 = PERSON_AND_ORGANIZATION ( #215, #117 ) ;
#137 = EDGE_CURVE ( 'NONE', #96, #96, #170, .T. ) ;
#138 = DIRECTION ( 'NONE',  ( 0.0000000000000000000, 1.000000000000000000, 0.0000000000000000000 ) ) ;
#139 = APPROVAL_ROLE ( '' ) ;
#140 = DIRECTION ( 'NONE',  ( -3.491481338843133355E-15, 1.224646799147353207E-16, -1.000000000000000000 ) ) ;
#141 = COORDINATED_UNIVERSAL_TIME_OFFSET ( 1, 0, .AHEAD. ) ;
#142 = FACE_OUTER_BOUND ( 'NONE', #180, .T. ) ;
#143 = LOCAL_TIME ( 7, 14, 35.00000000000000000, #36 ) ;
#144 = AXIS2_PLACEMENT_3D ( 'NONE', #70, #66, #135 ) ;
#145 = AXIS2_PLACEMENT_3D ( 'NONE', #125, #106, #174 ) ;
#146 = DIRECTION ( 'NONE',  ( -4.275831445896958607E-31, -1.000000000000000000, -1.224646799147353207E-16 ) ) ;
#147 = CARTESIAN_POINT ( 'NONE',  ( 1.955229549752154679E-14, 0.3599999999999983213, 5.599999999999999645 ) ) ;
#148 = LOCAL_TIME ( 7, 14, 35.00000000000000000, #90 ) ;
#149 = SECURITY_CLASSIFICATION ( '', '', #212 ) ;
#150 = AXIS2_PLACEMENT_3D ( 'NONE', #154, #88, #65 ) ;
#151 = DIRECTION ( 'NONE',  ( 5.349805401075680643E-31, 1.000000000000000000, 1.505836350674318890E-16 ) ) ;
#152 = CARTESIAN_POINT ( 'NONE',  ( 1.043952920314096936E-13, -3.661693929450586610E-15, 29.90000000000000213 ) ) ;
#153 = CARTESIAN_POINT ( 'NONE',  ( 0.0000000000000000000, 0.0000000000000000000, 0.0000000000000000000 ) ) ;
#154 = CARTESIAN_POINT ( 'NONE',  ( 1.955229549752154679E-14, 2.699567608791325767E-33, 5.599999999999999645 ) ) ;
#155 = APPROVAL_DATE_TIME ( #50, #119 ) ;
#156 = CARTESIAN_POINT ( 'NONE',  ( 1.043952920314096936E-13, 0.4999999999999954481, 29.90000000000000213 ) ) ;
#157 = AXIS2_PLACEMENT_3D ( 'NONE', #45, #99, #189 ) ;
#158 = ORIENTED_EDGE ( 'NONE', *, *, #167, .T. ) ;
#159 = APPROVAL_ROLE ( '' ) ;
#160 = CARTESIAN_POINT ( 'NONE',  ( 1.955229549752154679E-14, -6.858022075225177566E-16, 5.599999999999999645 ) ) ;
#161 = EDGE_LOOP ( 'NONE', ( #122 ) ) ;
#162 = MECHANICAL_CONTEXT ( 'NONE', #9, 'mechanical' ) ;
#163 = ORIENTED_EDGE ( 'NONE', *, *, #137, .T. ) ;
#164 = DATE_AND_TIME ( #211, #173 ) ;
#165 = FACE_OUTER_BOUND ( 'NONE', #73, .T. ) ;
#166 = DIRECTION ( 'NONE',  ( 3.491481338843133355E-15, -1.224646799147353207E-16, 1.000000000000000000 ) ) ;
#167 = EDGE_CURVE ( 'NONE', #80, #80, #59, .T. ) ;
#168 = EDGE_LOOP ( 'NONE', ( #58 ) ) ;
#169 = DIRECTION ( 'NONE',  ( -3.491481338843133355E-15, 1.224646799147353207E-16, -1.000000000000000000 ) ) ;
#170 = CIRCLE ( 'NONE', #157, 0.4999999999999970579 ) ;
#171 = EDGE_CURVE ( 'NONE', #79, #79, #111, .T. ) ;
#172 = DIRECTION ( 'NONE',  ( 0.0000000000000000000, 1.000000000000000000, 0.0000000000000000000 ) ) ;
#173 = LOCAL_TIME ( 7, 14, 35.00000000000000000, #141 ) ;
#174 = DIRECTION ( 'NONE',  ( 0.0000000000000000000, 1.000000000000000000, 0.0000000000000000000 ) ) ;
#175 = APPROVAL_STATUS ( 'not_yet_approved' ) ;
#176 = FACE_OUTER_BOUND ( 'NONE', #3, .T. ) ;
#177 = APPLICATION_PROTOCOL_DEFINITION ( 'international standard', 'config_control_design', 1994, #24 ) ;
#178 = CC_DESIGN_APPROVAL ( #126, ( #100 ) ) ;
#179 = DIRECTION ( 'NONE',  ( -5.349805401075680643E-31, -1.000000000000000000, -1.505836350674318890E-16 ) ) ;
#180 = EDGE_LOOP ( 'NONE', ( #21 ) ) ;
#181 =( NAMED_UNIT ( * ) SI_UNIT ( $, .STERADIAN. ) SOLID_ANGLE_UNIT ( ) );
#182 = ORIENTED_EDGE ( 'NONE', *, *, #137, .F. ) ;
#183 = AXIS2_PLACEMENT_3D ( 'NONE', #160, #140, #92 ) ;
#184 = PRODUCT_DEFINITION ( 'UNKNOWN', '', #100, #77 ) ;
#185 = ORIENTED_EDGE ( 'NONE', *, *, #218, .F. ) ;
#186 = EDGE_LOOP ( 'NONE', ( #182 ) ) ;
#187 = CIRCLE ( 'NONE', #42, 0.4999999999999991673 ) ;
#188 = CIRCLE ( 'NONE', #145, 0.3999999999999989675 ) ;
#189 = DIRECTION ( 'NONE',  ( 0.0000000000000000000, 1.000000000000000000, 0.0000000000000000000 ) ) ;
#190 = FACE_BOUND ( 'NONE', #115, .T. ) ;
#191 = CARTESIAN_POINT ( 'NONE',  ( 0.0000000000000000000, 0.0000000000000000000, 0.0000000000000000000 ) ) ;
#192 = DIRECTION ( 'NONE',  ( 3.491481338843133355E-15, -1.224646799147353207E-16, 1.000000000000000000 ) ) ;
#193 = CC_DESIGN_DATE_AND_TIME_ASSIGNMENT ( #105, #89, ( #149 ) ) ;
#194 = PERSON_AND_ORGANIZATION_ROLE ( 'design_owner' ) ;
#195 = DIRECTION ( 'NONE',  ( 1.000000000000000000, 0.0000000000000000000, 0.0000000000000000000 ) ) ;
#196 = APPROVAL_DATE_TIME ( #64, #126 ) ;
#197 = ORIENTED_EDGE ( 'NONE', *, *, #81, .F. ) ;
#198 = CONICAL_SURFACE ( 'NONE', #31, 0.3999999999999989675, 0.7853981633974694843 ) ;
#199 = VERTEX_POINT ( 'NONE', #8 ) ;
#200 = PRODUCT ( '55324', '55324', '', ( #162 ) ) ;
#201 = AXIS2_PLACEMENT_3D ( 'NONE', #14, #169, #151 ) ;
#202 = CARTESIAN_POINT ( 'NONE',  ( 7.552417098889705977E-16, 0.3599999999999982658, 0.2163098228499231168 ) ) ;
#203 = DIRECTION ( 'NONE',  ( 4.275831445896958607E-31, 1.000000000000000000, 1.224646799147353207E-16 ) ) ;
#204 = CALENDAR_DATE ( 2021, 8, 10 ) ;
#205 = APPROVAL ( #175, 'UNSPECIFIED' ) ;
#206 = PERSON_AND_ORGANIZATION ( #215, #117 ) ;
#207 = ADVANCED_FACE ( 'NONE', ( #123, #46 ), #51, .T. ) ;
#208 = DIRECTION ( 'NONE',  ( 4.275831445896958607E-31, 1.000000000000000000, 1.224646799147353207E-16 ) ) ;
#209 = PERSON_AND_ORGANIZATION_ROLE ( 'creator' ) ;
#210 =( LENGTH_UNIT ( ) NAMED_UNIT ( * ) SI_UNIT ( .MILLI., .METRE. ) );
#211 = CALENDAR_DATE ( 2021, 8, 10 ) ;
#212 = SECURITY_CLASSIFICATION_LEVEL ( 'unclassified' ) ;
#213 = DIRECTION ( 'NONE',  ( -3.491481338843133355E-15, 1.224646799147353207E-16, -1.000000000000000000 ) ) ;
#214 = EDGE_LOOP ( 'NONE', ( #163 ) ) ;
#215 = PERSON ( 'UNSPECIFIED', 'UNSPECIFIED', 'UNSPECIFIED', ('UNSPECIFIED'), ('UNSPECIFIED'), ('UNSPECIFIED') ) ;
#216 = PLANE ( 'NONE',  #98 ) ;
#217 = EDGE_LOOP ( 'NONE', ( #95 ) ) ;
#218 = EDGE_CURVE ( 'NONE', #199, #199, #188, .T. ) ;
#219 = CC_DESIGN_PERSON_AND_ORGANIZATION_ASSIGNMENT ( #121, #18, ( #184 ) ) ;
#220 = CARTESIAN_POINT ( 'NONE',  ( 1.955229549752154679E-14, -6.858022075225177566E-16, 5.599999999999999645 ) ) ;
#221 = COORDINATED_UNIVERSAL_TIME_OFFSET ( 1, 0, .AHEAD. ) ;
#222 = DIRECTION ( 'NONE',  ( -3.491481338843133355E-15, 1.224646799147353207E-16, -1.000000000000000000 ) ) ;
#223 = PERSON_AND_ORGANIZATION_ROLE ( 'design_supplier' ) ;
ENDSEC;
END-ISO-10303-21;
