ISO-10303-21;
HEADER;
FILE_DESCRIPTION (( 'STEP AP203' ),
    '1' );
FILE_NAME ('55323.step',
    '2021-10-08T05:14:34',
    ( '' ),
    ( '' ),
    'SwSTEP 2.0',
    'SolidWorks 2019',
    '' );
FILE_SCHEMA (( 'CONFIG_CONTROL_DESIGN' ));
ENDSEC;

DATA;
#1 = DIRECTION ( 'NONE',  ( 3.491481338843133355E-15, -1.224646799147353207E-16, 1.000000000000000000 ) ) ;
#2 = DIRECTION ( 'NONE',  ( -3.491481338843133355E-15, 1.224646799147353207E-16, -1.000000000000000000 ) ) ;
#3 = LOCAL_TIME ( 7, 14, 34.00000000000000000, #181 ) ;
#4 = CARTESIAN_POINT ( 'NONE',  ( 1.047444401652940007E-13, -3.673940397442059178E-15, 30.00000000000000000 ) ) ;
#5 = CARTESIAN_POINT ( 'NONE',  ( 0.0000000000000000000, 0.0000000000000000000, 0.0000000000000000000 ) ) ;
#6 = APPROVAL ( #97, 'UNSPECIFIED' ) ;
#7 = CIRCLE ( 'NONE', #129, 0.3549999999999990385 ) ;
#8 = APPROVAL ( #27, 'UNSPECIFIED' ) ;
#9 = APPLICATION_CONTEXT ( 'configuration controlled 3d designs of mechanical parts and assemblies' ) ;
#10 = DIRECTION ( 'NONE',  ( 3.491481338843133355E-15, -1.224646799147353207E-16, 1.000000000000000000 ) ) ;
#11 = CARTESIAN_POINT ( 'NONE',  ( 7.447522416960679201E-16, -2.612239220081602178E-17, 0.2133055197547852333 ) ) ;
#12 = LOCAL_TIME ( 7, 14, 34.00000000000000000, #28 ) ;
#13 = PRODUCT ( '55323', '55323', '', ( #199 ) ) ;
#14 = PERSON_AND_ORGANIZATION ( #114, #159 ) ;
#15 = VERTEX_POINT ( 'NONE', #63 ) ;
#16 = PERSON_AND_ORGANIZATION ( #114, #159 ) ;
#17 = EDGE_LOOP ( 'NONE', ( #193 ) ) ;
#18 = EDGE_LOOP ( 'NONE', ( #168 ) ) ;
#19 = PERSON_AND_ORGANIZATION ( #114, #159 ) ;
#20 = DIRECTION ( 'NONE',  ( 4.275831445896958607E-31, 1.000000000000000000, 1.224646799147353207E-16 ) ) ;
#21 = DIRECTION ( 'NONE',  ( 0.0000000000000000000, 1.000000000000000000, 0.0000000000000000000 ) ) ;
#22 = FACE_OUTER_BOUND ( 'NONE', #136, .T. ) ;
#23 = EDGE_LOOP ( 'NONE', ( #122 ) ) ;
#24 = CC_DESIGN_PERSON_AND_ORGANIZATION_ASSIGNMENT ( #14, #143, ( #213 ) ) ;
#25 = EDGE_CURVE ( 'NONE', #206, #206, #7, .T. ) ;
#26 = APPLICATION_CONTEXT ( 'configuration controlled 3d designs of mechanical parts and assemblies' ) ;
#27 = APPROVAL_STATUS ( 'not_yet_approved' ) ;
#28 = COORDINATED_UNIVERSAL_TIME_OFFSET ( 1, 0, .AHEAD. ) ;
#29 = FACE_OUTER_BOUND ( 'NONE', #23, .T. ) ;
#30 = AXIS2_PLACEMENT_3D ( 'NONE', #156, #39, #110 ) ;
#31 = CARTESIAN_POINT ( 'NONE',  ( 1.047444401652940007E-13, -3.673940397442059178E-15, 30.00000000000000000 ) ) ;
#32 = EDGE_LOOP ( 'NONE', ( #221 ) ) ;
#33 = CARTESIAN_POINT ( 'NONE',  ( 0.0000000000000000000, 0.0000000000000000000, 0.0000000000000000000 ) ) ;
#34 = DATE_AND_TIME ( #89, #92 ) ;
#35 = ORIENTED_EDGE ( 'NONE', *, *, #25, .T. ) ;
#36 = DESIGN_CONTEXT ( 'detailed design', #26, 'design' ) ;
#37 = CC_DESIGN_APPROVAL ( #8, ( #212 ) ) ;
#38 = APPROVAL_DATE_TIME ( #34, #78 ) ;
#39 = DIRECTION ( 'NONE',  ( 3.491481338843133355E-15, -1.224646799147353207E-16, 1.000000000000000000 ) ) ;
#40 = PRODUCT_RELATED_PRODUCT_CATEGORY ( 'detail', '', ( #13 ) ) ;
#41 = CC_DESIGN_SECURITY_CLASSIFICATION ( #208, ( #213 ) ) ;
#42 = DATE_TIME_ROLE ( 'creation_date' ) ;
#43 = CC_DESIGN_PERSON_AND_ORGANIZATION_ASSIGNMENT ( #59, #165, ( #13 ) ) ;
#44 = APPROVAL_DATE_TIME ( #131, #6 ) ;
#45 = EDGE_LOOP ( 'NONE', ( #205 ) ) ;
#46 = DIRECTION ( 'NONE',  ( -3.491481338843133355E-15, 1.224646799147353207E-16, -1.000000000000000000 ) ) ;
#47 = ORIENTED_EDGE ( 'NONE', *, *, #127, .T. ) ;
#48 = CARTESIAN_POINT ( 'NONE',  ( 1.955229549752154679E-14, 0.3549999999999983169, 5.599999999999999645 ) ) ;
#49 = CIRCLE ( 'NONE', #91, 0.4999999999999970579 ) ;
#50 = EDGE_LOOP ( 'NONE', ( #107 ) ) ;
#51 = CC_DESIGN_PERSON_AND_ORGANIZATION_ASSIGNMENT ( #144, #201, ( #212 ) ) ;
#52 = LOCAL_TIME ( 7, 14, 34.00000000000000000, #197 ) ;
#53 = CARTESIAN_POINT ( 'NONE',  ( 1.955229549752154679E-14, 2.662073614224779396E-33, 5.599999999999999645 ) ) ;
#54 = DIRECTION ( 'NONE',  ( -4.275831445896958607E-31, -1.000000000000000000, -1.224646799147353207E-16 ) ) ;
#55 = CARTESIAN_POINT ( 'NONE',  ( 1.955229549752154679E-14, -6.858022075225177566E-16, 5.599999999999999645 ) ) ;
#56 = ADVANCED_FACE ( 'NONE', ( #80, #149 ), #71, .T. ) ;
#57 = CIRCLE ( 'NONE', #179, 0.3549999999999990385 ) ;
#58 = AXIS2_PLACEMENT_3D ( 'NONE', #5, #70, #172 ) ;
#59 = PERSON_AND_ORGANIZATION ( #114, #159 ) ;
#60 = PRODUCT_DEFINITION_SHAPE ( 'NONE', 'NONE',  #212 ) ;
#61 = ORIENTED_EDGE ( 'NONE', *, *, #112, .T. ) ;
#62 = SECURITY_CLASSIFICATION_LEVEL ( 'unclassified' ) ;
#63 = CARTESIAN_POINT ( 'NONE',  ( 1.043952920314096936E-13, 0.4999999999999954481, 29.90000000000000213 ) ) ;
#64 = AXIS2_PLACEMENT_3D ( 'NONE', #31, #152, #68 ) ;
#65 = PERSON_AND_ORGANIZATION ( #114, #159 ) ;
#66 =( NAMED_UNIT ( * ) PLANE_ANGLE_UNIT ( ) SI_UNIT ( $, .RADIAN. ) );
#67 = CYLINDRICAL_SURFACE ( 'NONE', #200, 0.4999999999999980571 ) ;
#68 = DIRECTION ( 'NONE',  ( 0.0000000000000000000, 1.000000000000000000, 0.0000000000000000000 ) ) ;
#69 = CLOSED_SHELL ( 'NONE', ( #111, #56, #96 ) ) ;
#70 = DIRECTION ( 'NONE',  ( 0.0000000000000000000, 0.0000000000000000000, 1.000000000000000000 ) ) ;
#71 = CYLINDRICAL_SURFACE ( 'NONE', #88, 0.3549999999999986500 ) ;
#72 = ADVANCED_BREP_SHAPE_REPRESENTATION ( '55323', ( #140, #74, #58 ), #220 ) ;
#73 = PLANE ( 'NONE',  #98 ) ;
#74 = MANIFOLD_SOLID_BREP ( 'Corps-Déplacer/Copier1[2]', #69 ) ;
#75 = AXIS2_PLACEMENT_3D ( 'NONE', #171, #1, #155 ) ;
#76 = ADVANCED_FACE ( 'NONE', ( #93 ), #73, .F. ) ;
#77 = VERTEX_POINT ( 'NONE', #223 ) ;
#78 = APPROVAL ( #83, 'UNSPECIFIED' ) ;
#79 = APPROVAL_DATE_TIME ( #164, #8 ) ;
#80 = FACE_OUTER_BOUND ( 'NONE', #116, .T. ) ;
#81 = CC_DESIGN_APPROVAL ( #78, ( #208 ) ) ;
#82 = DIRECTION ( 'NONE',  ( -3.491481338843133355E-15, 1.224646799147353207E-16, -1.000000000000000000 ) ) ;
#83 = APPROVAL_STATUS ( 'not_yet_approved' ) ;
#84 = DIRECTION ( 'NONE',  ( 0.0000000000000000000, 1.000000000000000000, 0.0000000000000000000 ) ) ;
#85 = CARTESIAN_POINT ( 'NONE',  ( 1.043952920314096936E-13, -3.661693929450586610E-15, 29.90000000000000213 ) ) ;
#86 = COORDINATED_UNIVERSAL_TIME_OFFSET ( 1, 0, .AHEAD. ) ;
#87 = DIRECTION ( 'NONE',  ( 0.0000000000000000000, 1.000000000000000000, 0.0000000000000000000 ) ) ;
#88 = AXIS2_PLACEMENT_3D ( 'NONE', #210, #178, #90 ) ;
#89 = CALENDAR_DATE ( 2021, 8, 10 ) ;
#90 = DIRECTION ( 'NONE',  ( 4.275831445896958607E-31, 1.000000000000000000, 1.224646799147353207E-16 ) ) ;
#91 = AXIS2_PLACEMENT_3D ( 'NONE', #151, #2, #87 ) ;
#92 = LOCAL_TIME ( 7, 14, 34.00000000000000000, #86 ) ;
#93 = FACE_OUTER_BOUND ( 'NONE', #166, .T. ) ;
#94 = CLOSED_SHELL ( 'NONE', ( #76, #214, #204, #118, #188 ) ) ;
#95 = APPROVAL_PERSON_ORGANIZATION ( #19, #78, #150 ) ;
#96 = ADVANCED_FACE ( 'NONE', ( #126 ), #124, .T. ) ;
#97 = APPROVAL_STATUS ( 'not_yet_approved' ) ;
#98 = AXIS2_PLACEMENT_3D ( 'NONE', #53, #10, #54 ) ;
#99 = CALENDAR_DATE ( 2021, 8, 10 ) ;
#100 = DIRECTION ( 'NONE',  ( 0.0000000000000000000, 1.000000000000000000, 0.0000000000000000000 ) ) ;
#101 = EDGE_LOOP ( 'NONE', ( #207 ) ) ;
#102 = DATE_AND_TIME ( #222, #12 ) ;
#103 = EDGE_CURVE ( 'NONE', #190, #190, #157, .T. ) ;
#104 =( LENGTH_UNIT ( ) NAMED_UNIT ( * ) SI_UNIT ( .MILLI., .METRE. ) );
#105 = FACE_OUTER_BOUND ( 'NONE', #45, .T. ) ;
#106 = PLANE ( 'NONE',  #170 ) ;
#107 = ORIENTED_EDGE ( 'NONE', *, *, #112, .F. ) ;
#108 = DIRECTION ( 'NONE',  ( -3.491481338843133355E-15, 1.224646799147353207E-16, -1.000000000000000000 ) ) ;
#109 = LOCAL_TIME ( 7, 14, 34.00000000000000000, #196 ) ;
#110 = DIRECTION ( 'NONE',  ( -4.275831445896958607E-31, -1.000000000000000000, -1.224646799147353207E-16 ) ) ;
#111 = ADVANCED_FACE ( 'NONE', ( #215 ), #187, .T. ) ;
#112 = EDGE_CURVE ( 'NONE', #132, #132, #57, .T. ) ;
#113 = PERSON_AND_ORGANIZATION ( #114, #159 ) ;
#114 = PERSON ( 'UNSPECIFIED', 'UNSPECIFIED', 'UNSPECIFIED', ('UNSPECIFIED'), ('UNSPECIFIED'), ('UNSPECIFIED') ) ;
#115 = CC_DESIGN_APPROVAL ( #6, ( #213 ) ) ;
#116 = EDGE_LOOP ( 'NONE', ( #145 ) ) ;
#117 = VERTEX_POINT ( 'NONE', #148 ) ;
#118 = ADVANCED_FACE ( 'NONE', ( #160, #173 ), #218, .T. ) ;
#119 = ORIENTED_EDGE ( 'NONE', *, *, #162, .T. ) ;
#120 = CARTESIAN_POINT ( 'NONE',  ( 7.447522416960681174E-16, 0.3549999999999982614, 0.2133055197547852888 ) ) ;
#121 = FACE_OUTER_BOUND ( 'NONE', #202, .T. ) ;
#122 = ORIENTED_EDGE ( 'NONE', *, *, #176, .F. ) ;
#123 = CC_DESIGN_DATE_AND_TIME_ASSIGNMENT ( #102, #169, ( #208 ) ) ;
#124 = PLANE ( 'NONE',  #30 ) ;
#125 = APPROVAL_PERSON_ORGANIZATION ( #16, #8, #130 ) ;
#126 = FACE_OUTER_BOUND ( 'NONE', #32, .T. ) ;
#127 = EDGE_CURVE ( 'NONE', #77, #77, #49, .T. ) ;
#128 = DATE_AND_TIME ( #216, #109 ) ;
#129 = AXIS2_PLACEMENT_3D ( 'NONE', #185, #82, #100 ) ;
#130 = APPROVAL_ROLE ( '' ) ;
#131 = DATE_AND_TIME ( #198, #3 ) ;
#132 = VERTEX_POINT ( 'NONE', #141 ) ;
#133 = DIRECTION ( 'NONE',  ( 3.491481338843133355E-15, -1.224646799147353207E-16, 1.000000000000000000 ) ) ;
#134 = PERSON_AND_ORGANIZATION_ROLE ( 'classification_officer' ) ;
#135 = FACE_BOUND ( 'NONE', #50, .T. ) ;
#136 = EDGE_LOOP ( 'NONE', ( #47 ) ) ;
#137 = CARTESIAN_POINT ( 'NONE',  ( 1.047444401652940007E-13, 2.999519565323652267E-33, 30.00000000000000000 ) ) ;
#138 = CC_DESIGN_DATE_AND_TIME_ASSIGNMENT ( #128, #42, ( #212 ) ) ;
#139 = AXIS2_PLACEMENT_3D ( 'NONE', #4, #191, #21 ) ;
#140 = MANIFOLD_SOLID_BREP ( 'Corps-Déplacer/Copier1[1]', #94 ) ;
#141 = CARTESIAN_POINT ( 'NONE',  ( 1.955229549752154679E-14, 0.3549999999999983169, 5.599999999999999645 ) ) ;
#142 = EDGE_LOOP ( 'NONE', ( #35 ) ) ;
#143 = PERSON_AND_ORGANIZATION_ROLE ( 'design_supplier' ) ;
#144 = PERSON_AND_ORGANIZATION ( #114, #159 ) ;
#145 = ORIENTED_EDGE ( 'NONE', *, *, #103, .F. ) ;
#146 = AXIS2_PLACEMENT_3D ( 'NONE', #217, #46, #163 ) ;
#147 = CIRCLE ( 'NONE', #64, 0.3999999999999989675 ) ;
#148 = CARTESIAN_POINT ( 'NONE',  ( 1.047444401652940007E-13, 0.3999999999999953038, 30.00000000000000000 ) ) ;
#149 = FACE_OUTER_BOUND ( 'NONE', #142, .T. ) ;
#150 = APPROVAL_ROLE ( '' ) ;
#151 = CARTESIAN_POINT ( 'NONE',  ( 2.144170143130654245E-14, -7.520736466208141713E-16, 6.141147367097494758 ) ) ;
#152 = DIRECTION ( 'NONE',  ( -3.491481338843133355E-15, 1.224646799147353207E-16, -1.000000000000000000 ) ) ;
#153 = SHAPE_DEFINITION_REPRESENTATION ( #60, #72 ) ;
#154 = APPROVAL_PERSON_ORGANIZATION ( #113, #6, #161 ) ;
#155 = DIRECTION ( 'NONE',  ( 0.0000000000000000000, -1.000000000000000000, 0.0000000000000000000 ) ) ;
#156 = CARTESIAN_POINT ( 'NONE',  ( 1.955229549752154679E-14, 2.662073614224779396E-33, 5.599999999999999645 ) ) ;
#157 = CIRCLE ( 'NONE', #146, 0.3549999999999982614 ) ;
#158 = AXIS2_PLACEMENT_3D ( 'NONE', #85, #186, #84 ) ;
#159 = ORGANIZATION ( 'UNSPECIFIED', 'UNSPECIFIED', '' ) ;
#160 = FACE_OUTER_BOUND ( 'NONE', #18, .T. ) ;
#161 = APPROVAL_ROLE ( '' ) ;
#162 = EDGE_CURVE ( 'NONE', #15, #15, #177, .T. ) ;
#163 = DIRECTION ( 'NONE',  ( 5.425154772921817681E-31, 1.000000000000000000, 1.527045313359872872E-16 ) ) ;
#164 = DATE_AND_TIME ( #99, #52 ) ;
#165 = PERSON_AND_ORGANIZATION_ROLE ( 'design_owner' ) ;
#166 = EDGE_LOOP ( 'NONE', ( #61 ) ) ;
#167 = PERSON_AND_ORGANIZATION ( #114, #159 ) ;
#168 = ORIENTED_EDGE ( 'NONE', *, *, #162, .F. ) ;
#169 = DATE_TIME_ROLE ( 'classification_date' ) ;
#170 = AXIS2_PLACEMENT_3D ( 'NONE', #137, #209, #20 ) ;
#171 = CARTESIAN_POINT ( 'NONE',  ( 2.144170143130654245E-14, -7.520736466208141713E-16, 6.141147367097494758 ) ) ;
#172 = DIRECTION ( 'NONE',  ( 1.000000000000000000, 0.0000000000000000000, 0.0000000000000000000 ) ) ;
#173 = FACE_BOUND ( 'NONE', #17, .T. ) ;
#174 = APPLICATION_PROTOCOL_DEFINITION ( 'international standard', 'config_control_design', 1994, #9 ) ;
#175 = DIRECTION ( 'NONE',  ( 4.275831445896958607E-31, 1.000000000000000000, 1.224646799147353207E-16 ) ) ;
#176 = EDGE_CURVE ( 'NONE', #117, #117, #147, .T. ) ;
#177 = CIRCLE ( 'NONE', #158, 0.4999999999999991673 ) ;
#178 = DIRECTION ( 'NONE',  ( -3.491481338843133355E-15, 1.224646799147353207E-16, -1.000000000000000000 ) ) ;
#179 = AXIS2_PLACEMENT_3D ( 'NONE', #55, #194, #195 ) ;
#180 = CONICAL_SURFACE ( 'NONE', #75, 0.4999999999999970579, 0.2617993877991427465 ) ;
#181 = COORDINATED_UNIVERSAL_TIME_OFFSET ( 1, 0, .AHEAD. ) ;
#182 = AXIS2_PLACEMENT_3D ( 'NONE', #11, #133, #203 ) ;
#183 = PERSON_AND_ORGANIZATION_ROLE ( 'creator' ) ;
#184 = CC_DESIGN_PERSON_AND_ORGANIZATION_ASSIGNMENT ( #167, #134, ( #208 ) ) ;
#185 = CARTESIAN_POINT ( 'NONE',  ( 1.955229549752154679E-14, -6.858022075225177566E-16, 5.599999999999999645 ) ) ;
#186 = DIRECTION ( 'NONE',  ( -3.491481338843133355E-15, 1.224646799147353207E-16, -1.000000000000000000 ) ) ;
#187 = CONICAL_SURFACE ( 'NONE', #182, 0.3549999999999982614, 1.029744258676649649 ) ;
#188 = ADVANCED_FACE ( 'NONE', ( #29 ), #106, .F. ) ;
#189 = CC_DESIGN_PERSON_AND_ORGANIZATION_ASSIGNMENT ( #65, #183, ( #213 ) ) ;
#190 = VERTEX_POINT ( 'NONE', #120 ) ;
#191 = DIRECTION ( 'NONE',  ( -3.491481338843133355E-15, 1.224646799147353207E-16, -1.000000000000000000 ) ) ;
#192 = UNCERTAINTY_MEASURE_WITH_UNIT (LENGTH_MEASURE( 1.000000000000000082E-05 ), #104, 'distance_accuracy_value', 'NONE');
#193 = ORIENTED_EDGE ( 'NONE', *, *, #176, .T. ) ;
#194 = DIRECTION ( 'NONE',  ( -3.491481338843133355E-15, 1.224646799147353207E-16, -1.000000000000000000 ) ) ;
#195 = DIRECTION ( 'NONE',  ( 0.0000000000000000000, 1.000000000000000000, 0.0000000000000000000 ) ) ;
#196 = COORDINATED_UNIVERSAL_TIME_OFFSET ( 1, 0, .AHEAD. ) ;
#197 = COORDINATED_UNIVERSAL_TIME_OFFSET ( 1, 0, .AHEAD. ) ;
#198 = CALENDAR_DATE ( 2021, 8, 10 ) ;
#199 = MECHANICAL_CONTEXT ( 'NONE', #9, 'mechanical' ) ;
#200 = AXIS2_PLACEMENT_3D ( 'NONE', #33, #108, #175 ) ;
#201 = PERSON_AND_ORGANIZATION_ROLE ( 'creator' ) ;
#202 = EDGE_LOOP ( 'NONE', ( #119 ) ) ;
#203 = DIRECTION ( 'NONE',  ( -5.425154772921817681E-31, -1.000000000000000000, -1.527045313359872872E-16 ) ) ;
#204 = ADVANCED_FACE ( 'NONE', ( #105, #121 ), #67, .T. ) ;
#205 = ORIENTED_EDGE ( 'NONE', *, *, #127, .F. ) ;
#206 = VERTEX_POINT ( 'NONE', #48 ) ;
#207 = ORIENTED_EDGE ( 'NONE', *, *, #103, .T. ) ;
#208 = SECURITY_CLASSIFICATION ( '', '', #62 ) ;
#209 = DIRECTION ( 'NONE',  ( -3.491481338843133355E-15, 1.224646799147353207E-16, -1.000000000000000000 ) ) ;
#210 = CARTESIAN_POINT ( 'NONE',  ( 0.0000000000000000000, 0.0000000000000000000, 0.0000000000000000000 ) ) ;
#211 =( NAMED_UNIT ( * ) SI_UNIT ( $, .STERADIAN. ) SOLID_ANGLE_UNIT ( ) );
#212 = PRODUCT_DEFINITION ( 'UNKNOWN', '', #213, #36 ) ;
#213 = PRODUCT_DEFINITION_FORMATION_WITH_SPECIFIED_SOURCE ( 'ANY', '', #13, .NOT_KNOWN. ) ;
#214 = ADVANCED_FACE ( 'NONE', ( #135, #22 ), #180, .T. ) ;
#215 = FACE_OUTER_BOUND ( 'NONE', #101, .T. ) ;
#216 = CALENDAR_DATE ( 2021, 8, 10 ) ;
#217 = CARTESIAN_POINT ( 'NONE',  ( 7.447522416960679201E-16, -2.612239220081602178E-17, 0.2133055197547852333 ) ) ;
#218 = CONICAL_SURFACE ( 'NONE', #139, 0.3999999999999989675, 0.7853981633974694843 ) ;
#219 = APPLICATION_PROTOCOL_DEFINITION ( 'international standard', 'config_control_design', 1994, #26 ) ;
#220 =( GEOMETRIC_REPRESENTATION_CONTEXT ( 3 ) GLOBAL_UNCERTAINTY_ASSIGNED_CONTEXT ( ( #192 ) ) GLOBAL_UNIT_ASSIGNED_CONTEXT ( ( #104, #66, #211 ) ) REPRESENTATION_CONTEXT ( 'NONE', 'WORKASPACE' ) );
#221 = ORIENTED_EDGE ( 'NONE', *, *, #25, .F. ) ;
#222 = CALENDAR_DATE ( 2021, 8, 10 ) ;
#223 = CARTESIAN_POINT ( 'NONE',  ( 2.144170143130654245E-14, 0.4999999999999963363, 6.141147367097494758 ) ) ;
ENDSEC;
END-ISO-10303-21;
