ISO-10303-21;
HEADER;
FILE_DESCRIPTION (( 'STEP AP203' ),
    '1' );
FILE_NAME ('55322.step',
    '2021-10-08T05:14:33',
    ( '' ),
    ( '' ),
    'SwSTEP 2.0',
    'SolidWorks 2019',
    '' );
FILE_SCHEMA (( 'CONFIG_CONTROL_DESIGN' ));
ENDSEC;

DATA;
#1 = CIRCLE ( 'NONE', #128, 0.4999999999999970579 ) ;
#2 = ORIENTED_EDGE ( 'NONE', *, *, #143, .T. ) ;
#3 = APPROVAL_PERSON_ORGANIZATION ( #60, #82, #91 ) ;
#4 = DIRECTION ( 'NONE',  ( 3.491481338843133355E-15, -1.224646799147353207E-16, 1.000000000000000000 ) ) ;
#5 = DATE_TIME_ROLE ( 'creation_date' ) ;
#6 = ORIENTED_EDGE ( 'NONE', *, *, #115, .F. ) ;
#7 = PRODUCT ( '55322', '55322', '', ( #66 ) ) ;
#8 = VERTEX_POINT ( 'NONE', #134 ) ;
#9 = CALENDAR_DATE ( 2021, 8, 10 ) ;
#10 = VERTEX_POINT ( 'NONE', #15 ) ;
#11 = DIRECTION ( 'NONE',  ( 0.0000000000000000000, 1.000000000000000000, 0.0000000000000000000 ) ) ;
#12 = CC_DESIGN_APPROVAL ( #82, ( #189 ) ) ;
#13 = APPROVAL_STATUS ( 'not_yet_approved' ) ;
#14 = CC_DESIGN_PERSON_AND_ORGANIZATION_ASSIGNMENT ( #103, #160, ( #176 ) ) ;
#15 = CARTESIAN_POINT ( 'NONE',  ( 2.150685336005775072E-14, 0.4999999999999963363, 6.159807621135339417 ) ) ;
#16 = CIRCLE ( 'NONE', #77, 0.4999999999999991673 ) ;
#17 = CLOSED_SHELL ( 'NONE', ( #20, #178, #67, #196, #211 ) ) ;
#18 = ORIENTED_EDGE ( 'NONE', *, *, #186, .F. ) ;
#19 = DIRECTION ( 'NONE',  ( 3.491481338843133355E-15, -1.224646799147353207E-16, 1.000000000000000000 ) ) ;
#20 = ADVANCED_FACE ( 'NONE', ( #212 ), #199, .F. ) ;
#21 = AXIS2_PLACEMENT_3D ( 'NONE', #106, #180, #54 ) ;
#22 = CARTESIAN_POINT ( 'NONE',  ( 1.955229549752154679E-14, -6.858022075225177566E-16, 5.599999999999999645 ) ) ;
#23 = COORDINATED_UNIVERSAL_TIME_OFFSET ( 1, 0, .AHEAD. ) ;
#24 = CARTESIAN_POINT ( 'NONE',  ( 2.150685336005775072E-14, -7.543588686586864921E-16, 6.159807621135339417 ) ) ;
#25 = CALENDAR_DATE ( 2021, 8, 10 ) ;
#26 = DIRECTION ( 'NONE',  ( -3.491481338843133355E-15, 1.224646799147353207E-16, -1.000000000000000000 ) ) ;
#27 = DIRECTION ( 'NONE',  ( 0.0000000000000000000, 1.000000000000000000, 0.0000000000000000000 ) ) ;
#28 = PERSON_AND_ORGANIZATION ( #56, #105 ) ;
#29 = PERSON_AND_ORGANIZATION_ROLE ( 'design_owner' ) ;
#30 =( NAMED_UNIT ( * ) PLANE_ANGLE_UNIT ( ) SI_UNIT ( $, .RADIAN. ) );
#31 = CIRCLE ( 'NONE', #161, 0.3999999999999989675 ) ;
#32 = CC_DESIGN_DATE_AND_TIME_ASSIGNMENT ( #64, #46, ( #137 ) ) ;
#33 =( GEOMETRIC_REPRESENTATION_CONTEXT ( 3 ) GLOBAL_UNCERTAINTY_ASSIGNED_CONTEXT ( ( #118 ) ) GLOBAL_UNIT_ASSIGNED_CONTEXT ( ( #42, #30, #85 ) ) REPRESENTATION_CONTEXT ( 'NONE', 'WORKASPACE' ) );
#34 = CLOSED_SHELL ( 'NONE', ( #102, #170, #138 ) ) ;
#35 = ORIENTED_EDGE ( 'NONE', *, *, #120, .F. ) ;
#36 = EDGE_LOOP ( 'NONE', ( #18 ) ) ;
#37 = DIRECTION ( 'NONE',  ( 4.275831445896958607E-31, 1.000000000000000000, 1.224646799147353207E-16 ) ) ;
#38 = FACE_OUTER_BOUND ( 'NONE', #142, .T. ) ;
#39 = CARTESIAN_POINT ( 'NONE',  ( 0.0000000000000000000, 0.0000000000000000000, 0.0000000000000000000 ) ) ;
#40 = AXIS2_PLACEMENT_3D ( 'NONE', #129, #135, #192 ) ;
#41 = CALENDAR_DATE ( 2021, 8, 10 ) ;
#42 =( LENGTH_UNIT ( ) NAMED_UNIT ( * ) SI_UNIT ( .MILLI., .METRE. ) );
#43 = APPROVAL_STATUS ( 'not_yet_approved' ) ;
#44 = PLANE ( 'NONE',  #121 ) ;
#45 = FACE_OUTER_BOUND ( 'NONE', #203, .T. ) ;
#46 = DATE_TIME_ROLE ( 'classification_date' ) ;
#47 = DIRECTION ( 'NONE',  ( 3.491481338843133355E-15, -1.224646799147353207E-16, 1.000000000000000000 ) ) ;
#48 = PERSON_AND_ORGANIZATION ( #56, #105 ) ;
#49 = PERSON_AND_ORGANIZATION ( #56, #105 ) ;
#50 = APPROVAL ( #184, 'UNSPECIFIED' ) ;
#51 = DESIGN_CONTEXT ( 'detailed design', #139, 'design' ) ;
#52 = ORIENTED_EDGE ( 'NONE', *, *, #218, .T. ) ;
#53 = EDGE_LOOP ( 'NONE', ( #55 ) ) ;
#54 = DIRECTION ( 'NONE',  ( 0.0000000000000000000, 1.000000000000000000, 0.0000000000000000000 ) ) ;
#55 = ORIENTED_EDGE ( 'NONE', *, *, #194, .T. ) ;
#56 = PERSON ( 'UNSPECIFIED', 'UNSPECIFIED', 'UNSPECIFIED', ('UNSPECIFIED'), ('UNSPECIFIED'), ('UNSPECIFIED') ) ;
#57 = COORDINATED_UNIVERSAL_TIME_OFFSET ( 1, 0, .AHEAD. ) ;
#58 = CARTESIAN_POINT ( 'NONE',  ( 1.043952920314096936E-13, 0.4999999999999954481, 29.90000000000000213 ) ) ;
#59 = FACE_OUTER_BOUND ( 'NONE', #200, .T. ) ;
#60 = PERSON_AND_ORGANIZATION ( #56, #105 ) ;
#61 = CC_DESIGN_APPROVAL ( #125, ( #137 ) ) ;
#62 = FACE_OUTER_BOUND ( 'NONE', #73, .T. ) ;
#63 = CONICAL_SURFACE ( 'NONE', #117, 0.3499999999999982569, 1.029744258676649649 ) ;
#64 = DATE_AND_TIME ( #154, #201 ) ;
#65 = FACE_BOUND ( 'NONE', #53, .T. ) ;
#66 = MECHANICAL_CONTEXT ( 'NONE', #87, 'mechanical' ) ;
#67 = ADVANCED_FACE ( 'NONE', ( #119, #162 ), #169, .T. ) ;
#68 = CONICAL_SURFACE ( 'NONE', #177, 0.4999999999999970579, 0.2617993877991435236 ) ;
#69 = CARTESIAN_POINT ( 'NONE',  ( 7.342627735031655384E-16, -2.575447118390312137E-17, 0.2103012166596474053 ) ) ;
#70 = EDGE_LOOP ( 'NONE', ( #35 ) ) ;
#71 = DIRECTION ( 'NONE',  ( -5.502656983963558534E-31, -1.000000000000000000, -1.548860246407871225E-16 ) ) ;
#72 = PERSON_AND_ORGANIZATION ( #56, #105 ) ;
#73 = EDGE_LOOP ( 'NONE', ( #122 ) ) ;
#74 = APPROVAL_DATE_TIME ( #109, #82 ) ;
#75 = CARTESIAN_POINT ( 'NONE',  ( 1.955229549752154679E-14, 2.624579619658229945E-33, 5.599999999999999645 ) ) ;
#76 = APPROVAL_PERSON_ORGANIZATION ( #72, #50, #146 ) ;
#77 = AXIS2_PLACEMENT_3D ( 'NONE', #171, #173, #114 ) ;
#78 = APPROVAL_DATE_TIME ( #94, #50 ) ;
#79 = SHAPE_DEFINITION_REPRESENTATION ( #86, #158 ) ;
#80 = MANIFOLD_SOLID_BREP ( 'Corps-Déplacer/Copier1[1]', #17 ) ;
#81 = CARTESIAN_POINT ( 'NONE',  ( 1.047444401652940007E-13, 0.3999999999999953038, 30.00000000000000000 ) ) ;
#82 = APPROVAL ( #43, 'UNSPECIFIED' ) ;
#83 = PERSON_AND_ORGANIZATION_ROLE ( 'classification_officer' ) ;
#84 = VERTEX_POINT ( 'NONE', #151 ) ;
#85 =( NAMED_UNIT ( * ) SI_UNIT ( $, .STERADIAN. ) SOLID_ANGLE_UNIT ( ) );
#86 = PRODUCT_DEFINITION_SHAPE ( 'NONE', 'NONE',  #189 ) ;
#87 = APPLICATION_CONTEXT ( 'configuration controlled 3d designs of mechanical parts and assemblies' ) ;
#88 = FACE_OUTER_BOUND ( 'NONE', #185, .T. ) ;
#89 = LOCAL_TIME ( 7, 14, 33.00000000000000000, #23 ) ;
#90 = DIRECTION ( 'NONE',  ( -4.275831445896958607E-31, -1.000000000000000000, -1.224646799147353207E-16 ) ) ;
#91 = APPROVAL_ROLE ( '' ) ;
#92 = DIRECTION ( 'NONE',  ( 0.0000000000000000000, 1.000000000000000000, 0.0000000000000000000 ) ) ;
#93 = CALENDAR_DATE ( 2021, 8, 10 ) ;
#94 = DATE_AND_TIME ( #41, #126 ) ;
#95 = CARTESIAN_POINT ( 'NONE',  ( 2.150685336005775072E-14, -7.543588686586864921E-16, 6.159807621135339417 ) ) ;
#96 = PERSON_AND_ORGANIZATION ( #56, #105 ) ;
#97 = PRODUCT_RELATED_PRODUCT_CATEGORY ( 'detail', '', ( #7 ) ) ;
#98 = DIRECTION ( 'NONE',  ( -3.491481338843133355E-15, 1.224646799147353207E-16, -1.000000000000000000 ) ) ;
#99 = FACE_OUTER_BOUND ( 'NONE', #107, .T. ) ;
#100 = AXIS2_PLACEMENT_3D ( 'NONE', #217, #208, #223 ) ;
#101 = AXIS2_PLACEMENT_3D ( 'NONE', #188, #205, #222 ) ;
#102 = ADVANCED_FACE ( 'NONE', ( #88 ), #63, .T. ) ;
#103 = PERSON_AND_ORGANIZATION ( #56, #105 ) ;
#104 = APPLICATION_PROTOCOL_DEFINITION ( 'international standard', 'config_control_design', 1994, #139 ) ;
#105 = ORGANIZATION ( 'UNSPECIFIED', 'UNSPECIFIED', '' ) ;
#106 = CARTESIAN_POINT ( 'NONE',  ( 1.955229549752154679E-14, -6.858022075225177566E-16, 5.599999999999999645 ) ) ;
#107 = EDGE_LOOP ( 'NONE', ( #141 ) ) ;
#108 = DIRECTION ( 'NONE',  ( -3.491481338843133355E-15, 1.224646799147353207E-16, -1.000000000000000000 ) ) ;
#109 = DATE_AND_TIME ( #25, #124 ) ;
#110 = FACE_BOUND ( 'NONE', #70, .T. ) ;
#111 = CC_DESIGN_PERSON_AND_ORGANIZATION_ASSIGNMENT ( #49, #116, ( #176 ) ) ;
#112 = CARTESIAN_POINT ( 'NONE',  ( 1.047444401652940007E-13, 2.999519565323652267E-33, 30.00000000000000000 ) ) ;
#113 = CYLINDRICAL_SURFACE ( 'NONE', #101, 0.3499999999999984235 ) ;
#114 = DIRECTION ( 'NONE',  ( 0.0000000000000000000, 1.000000000000000000, 0.0000000000000000000 ) ) ;
#115 = EDGE_CURVE ( 'NONE', #84, #84, #165, .T. ) ;
#116 = PERSON_AND_ORGANIZATION_ROLE ( 'design_supplier' ) ;
#117 = AXIS2_PLACEMENT_3D ( 'NONE', #69, #4, #71 ) ;
#118 = UNCERTAINTY_MEASURE_WITH_UNIT (LENGTH_MEASURE( 1.000000000000000082E-05 ), #42, 'distance_accuracy_value', 'NONE');
#119 = FACE_OUTER_BOUND ( 'NONE', #36, .T. ) ;
#120 = EDGE_CURVE ( 'NONE', #172, #172, #156, .T. ) ;
#121 = AXIS2_PLACEMENT_3D ( 'NONE', #112, #174, #136 ) ;
#122 = ORIENTED_EDGE ( 'NONE', *, *, #218, .F. ) ;
#123 = DIRECTION ( 'NONE',  ( -3.491481338843133355E-15, 1.224646799147353207E-16, -1.000000000000000000 ) ) ;
#124 = LOCAL_TIME ( 7, 14, 33.00000000000000000, #168 ) ;
#125 = APPROVAL ( #13, 'UNSPECIFIED' ) ;
#126 = LOCAL_TIME ( 7, 14, 33.00000000000000000, #127 ) ;
#127 = COORDINATED_UNIVERSAL_TIME_OFFSET ( 1, 0, .AHEAD. ) ;
#128 = AXIS2_PLACEMENT_3D ( 'NONE', #24, #26, #27 ) ;
#129 = CARTESIAN_POINT ( 'NONE',  ( 7.342627735031655384E-16, -2.575447118390312137E-17, 0.2103012166596474053 ) ) ;
#130 = DATE_AND_TIME ( #9, #164 ) ;
#131 = CARTESIAN_POINT ( 'NONE',  ( 1.047444401652940007E-13, -3.673940397442059178E-15, 30.00000000000000000 ) ) ;
#132 = CC_DESIGN_PERSON_AND_ORGANIZATION_ASSIGNMENT ( #96, #145, ( #189 ) ) ;
#133 = APPROVAL_DATE_TIME ( #130, #125 ) ;
#134 = CARTESIAN_POINT ( 'NONE',  ( 7.342627735031657356E-16, 0.3499999999999982569, 0.2103012166596474608 ) ) ;
#135 = DIRECTION ( 'NONE',  ( -3.491481338843133355E-15, 1.224646799147353207E-16, -1.000000000000000000 ) ) ;
#136 = DIRECTION ( 'NONE',  ( 4.275831445896958607E-31, 1.000000000000000000, 1.224646799147353207E-16 ) ) ;
#137 = SECURITY_CLASSIFICATION ( '', '', #213 ) ;
#138 = ADVANCED_FACE ( 'NONE', ( #38 ), #182, .T. ) ;
#139 = APPLICATION_CONTEXT ( 'configuration controlled 3d designs of mechanical parts and assemblies' ) ;
#140 = AXIS2_PLACEMENT_3D ( 'NONE', #75, #19, #90 ) ;
#141 = ORIENTED_EDGE ( 'NONE', *, *, #115, .T. ) ;
#142 = EDGE_LOOP ( 'NONE', ( #6 ) ) ;
#143 = EDGE_CURVE ( 'NONE', #8, #8, #204, .T. ) ;
#144 = ORIENTED_EDGE ( 'NONE', *, *, #120, .T. ) ;
#145 = PERSON_AND_ORGANIZATION_ROLE ( 'creator' ) ;
#146 = APPROVAL_ROLE ( '' ) ;
#147 = CARTESIAN_POINT ( 'NONE',  ( 1.955229549752154679E-14, 2.624579619658229945E-33, 5.599999999999999645 ) ) ;
#148 = AXIS2_PLACEMENT_3D ( 'NONE', #157, #98, #11 ) ;
#149 = AXIS2_PLACEMENT_3D ( 'NONE', #147, #167, #181 ) ;
#150 = VERTEX_POINT ( 'NONE', #81 ) ;
#151 = CARTESIAN_POINT ( 'NONE',  ( 1.955229549752154679E-14, 0.3499999999999978684, 5.599999999999999645 ) ) ;
#152 = MANIFOLD_SOLID_BREP ( 'Corps-Déplacer/Copier1[2]', #34 ) ;
#153 = VERTEX_POINT ( 'NONE', #58 ) ;
#154 = CALENDAR_DATE ( 2021, 8, 10 ) ;
#155 = CC_DESIGN_APPROVAL ( #50, ( #176 ) ) ;
#156 = CIRCLE ( 'NONE', #183, 0.3499999999999985900 ) ;
#157 = CARTESIAN_POINT ( 'NONE',  ( 1.047444401652940007E-13, -3.673940397442059178E-15, 30.00000000000000000 ) ) ;
#158 = ADVANCED_BREP_SHAPE_REPRESENTATION ( '55322', ( #80, #152, #100 ), #33 ) ;
#159 = CC_DESIGN_PERSON_AND_ORGANIZATION_ASSIGNMENT ( #48, #29, ( #7 ) ) ;
#160 = PERSON_AND_ORGANIZATION_ROLE ( 'creator' ) ;
#161 = AXIS2_PLACEMENT_3D ( 'NONE', #131, #216, #219 ) ;
#162 = FACE_OUTER_BOUND ( 'NONE', #197, .T. ) ;
#163 = ORIENTED_EDGE ( 'NONE', *, *, #143, .F. ) ;
#164 = LOCAL_TIME ( 7, 14, 33.00000000000000000, #57 ) ;
#165 = CIRCLE ( 'NONE', #21, 0.3499999999999985900 ) ;
#166 = DATE_AND_TIME ( #93, #89 ) ;
#167 = DIRECTION ( 'NONE',  ( 3.491481338843133355E-15, -1.224646799147353207E-16, 1.000000000000000000 ) ) ;
#168 = COORDINATED_UNIVERSAL_TIME_OFFSET ( 1, 0, .AHEAD. ) ;
#169 = CYLINDRICAL_SURFACE ( 'NONE', #221, 0.4999999999999980571 ) ;
#170 = ADVANCED_FACE ( 'NONE', ( #59, #99 ), #113, .T. ) ;
#171 = CARTESIAN_POINT ( 'NONE',  ( 1.043952920314096936E-13, -3.661693929450586610E-15, 29.90000000000000213 ) ) ;
#172 = VERTEX_POINT ( 'NONE', #190 ) ;
#173 = DIRECTION ( 'NONE',  ( -3.491481338843133355E-15, 1.224646799147353207E-16, -1.000000000000000000 ) ) ;
#174 = DIRECTION ( 'NONE',  ( -3.491481338843133355E-15, 1.224646799147353207E-16, -1.000000000000000000 ) ) ;
#175 = CC_DESIGN_PERSON_AND_ORGANIZATION_ASSIGNMENT ( #28, #83, ( #137 ) ) ;
#176 = PRODUCT_DEFINITION_FORMATION_WITH_SPECIFIED_SOURCE ( 'ANY', '', #7, .NOT_KNOWN. ) ;
#177 = AXIS2_PLACEMENT_3D ( 'NONE', #95, #47, #206 ) ;
#178 = ADVANCED_FACE ( 'NONE', ( #110, #207 ), #68, .T. ) ;
#179 = ORIENTED_EDGE ( 'NONE', *, *, #186, .T. ) ;
#180 = DIRECTION ( 'NONE',  ( -3.491481338843133355E-15, 1.224646799147353207E-16, -1.000000000000000000 ) ) ;
#181 = DIRECTION ( 'NONE',  ( -4.275831445896958607E-31, -1.000000000000000000, -1.224646799147353207E-16 ) ) ;
#182 = PLANE ( 'NONE',  #140 ) ;
#183 = AXIS2_PLACEMENT_3D ( 'NONE', #22, #123, #92 ) ;
#184 = APPROVAL_STATUS ( 'not_yet_approved' ) ;
#185 = EDGE_LOOP ( 'NONE', ( #2 ) ) ;
#186 = EDGE_CURVE ( 'NONE', #10, #10, #1, .T. ) ;
#187 = APPLICATION_PROTOCOL_DEFINITION ( 'international standard', 'config_control_design', 1994, #87 ) ;
#188 = CARTESIAN_POINT ( 'NONE',  ( 0.0000000000000000000, 0.0000000000000000000, 0.0000000000000000000 ) ) ;
#189 = PRODUCT_DEFINITION ( 'UNKNOWN', '', #176, #51 ) ;
#190 = CARTESIAN_POINT ( 'NONE',  ( 1.955229549752154679E-14, 0.3499999999999978684, 5.599999999999999645 ) ) ;
#191 = COORDINATED_UNIVERSAL_TIME_OFFSET ( 1, 0, .AHEAD. ) ;
#192 = DIRECTION ( 'NONE',  ( 5.502656983963558534E-31, 1.000000000000000000, 1.548860246407871225E-16 ) ) ;
#193 = APPROVAL_PERSON_ORGANIZATION ( #220, #125, #215 ) ;
#194 = EDGE_CURVE ( 'NONE', #150, #150, #31, .T. ) ;
#195 = CC_DESIGN_SECURITY_CLASSIFICATION ( #137, ( #176 ) ) ;
#196 = ADVANCED_FACE ( 'NONE', ( #62, #65 ), #202, .T. ) ;
#197 = EDGE_LOOP ( 'NONE', ( #52 ) ) ;
#198 = ORIENTED_EDGE ( 'NONE', *, *, #194, .F. ) ;
#199 = PLANE ( 'NONE',  #149 ) ;
#200 = EDGE_LOOP ( 'NONE', ( #163 ) ) ;
#201 = LOCAL_TIME ( 7, 14, 33.00000000000000000, #191 ) ;
#202 = CONICAL_SURFACE ( 'NONE', #148, 0.3999999999999989675, 0.7853981633974694843 ) ;
#203 = EDGE_LOOP ( 'NONE', ( #198 ) ) ;
#204 = CIRCLE ( 'NONE', #40, 0.3499999999999982569 ) ;
#205 = DIRECTION ( 'NONE',  ( -3.491481338843133355E-15, 1.224646799147353207E-16, -1.000000000000000000 ) ) ;
#206 = DIRECTION ( 'NONE',  ( 0.0000000000000000000, -1.000000000000000000, 0.0000000000000000000 ) ) ;
#207 = FACE_OUTER_BOUND ( 'NONE', #214, .T. ) ;
#208 = DIRECTION ( 'NONE',  ( 0.0000000000000000000, 0.0000000000000000000, 1.000000000000000000 ) ) ;
#209 = CC_DESIGN_DATE_AND_TIME_ASSIGNMENT ( #166, #5, ( #189 ) ) ;
#210 = EDGE_LOOP ( 'NONE', ( #144 ) ) ;
#211 = ADVANCED_FACE ( 'NONE', ( #45 ), #44, .F. ) ;
#212 = FACE_OUTER_BOUND ( 'NONE', #210, .T. ) ;
#213 = SECURITY_CLASSIFICATION_LEVEL ( 'unclassified' ) ;
#214 = EDGE_LOOP ( 'NONE', ( #179 ) ) ;
#215 = APPROVAL_ROLE ( '' ) ;
#216 = DIRECTION ( 'NONE',  ( -3.491481338843133355E-15, 1.224646799147353207E-16, -1.000000000000000000 ) ) ;
#217 = CARTESIAN_POINT ( 'NONE',  ( 0.0000000000000000000, 0.0000000000000000000, 0.0000000000000000000 ) ) ;
#218 = EDGE_CURVE ( 'NONE', #153, #153, #16, .T. ) ;
#219 = DIRECTION ( 'NONE',  ( 0.0000000000000000000, 1.000000000000000000, 0.0000000000000000000 ) ) ;
#220 = PERSON_AND_ORGANIZATION ( #56, #105 ) ;
#221 = AXIS2_PLACEMENT_3D ( 'NONE', #39, #108, #37 ) ;
#222 = DIRECTION ( 'NONE',  ( 4.275831445896958607E-31, 1.000000000000000000, 1.224646799147353207E-16 ) ) ;
#223 = DIRECTION ( 'NONE',  ( 1.000000000000000000, 0.0000000000000000000, 0.0000000000000000000 ) ) ;
ENDSEC;
END-ISO-10303-21;
