ISO-10303-21;
HEADER;
FILE_DESCRIPTION (( 'STEP AP203' ),
    '1' );
FILE_NAME ('55321.step',
    '2021-10-08T05:14:33',
    ( '' ),
    ( '' ),
    'SwSTEP 2.0',
    'SolidWorks 2019',
    '' );
FILE_SCHEMA (( 'CONFIG_CONTROL_DESIGN' ));
ENDSEC;

DATA;
#1 = DIRECTION ( 'NONE',  ( -3.491481338843133355E-15, 1.224646799147353207E-16, -1.000000000000000000 ) ) ;
#2 = AXIS2_PLACEMENT_3D ( 'NONE', #176, #221, #177 ) ;
#3 = CIRCLE ( 'NONE', #71, 0.3999999999999989675 ) ;
#4 = DIRECTION ( 'NONE',  ( -3.491481338843133355E-15, 1.224646799147353207E-16, -1.000000000000000000 ) ) ;
#5 = UNCERTAINTY_MEASURE_WITH_UNIT (LENGTH_MEASURE( 1.000000000000000082E-05 ), #52, 'distance_accuracy_value', 'NONE');
#6 = PERSON_AND_ORGANIZATION_ROLE ( 'design_supplier' ) ;
#7 = PERSON_AND_ORGANIZATION_ROLE ( 'creator' ) ;
#8 = VERTEX_POINT ( 'NONE', #137 ) ;
#9 = CC_DESIGN_PERSON_AND_ORGANIZATION_ASSIGNMENT ( #152, #6, ( #16 ) ) ;
#10 = ORIENTED_EDGE ( 'NONE', *, *, #209, .F. ) ;
#11 = ADVANCED_BREP_SHAPE_REPRESENTATION ( '55321', ( #216, #131, #99 ), #127 ) ;
#12 = APPROVAL_ROLE ( '' ) ;
#13 = DIRECTION ( 'NONE',  ( 3.491481338843133355E-15, -1.224646799147353207E-16, 1.000000000000000000 ) ) ;
#14 = ADVANCED_FACE ( 'NONE', ( #27 ), #58, .T. ) ;
#15 = CARTESIAN_POINT ( 'NONE',  ( 1.047444401652940007E-13, 2.999519565323652267E-33, 30.00000000000000000 ) ) ;
#16 = PRODUCT_DEFINITION_FORMATION_WITH_SPECIFIED_SOURCE ( 'ANY', '', #108, .NOT_KNOWN. ) ;
#17 = CARTESIAN_POINT ( 'NONE',  ( 0.0000000000000000000, 0.0000000000000000000, 0.0000000000000000000 ) ) ;
#18 = DIRECTION ( 'NONE',  ( 0.0000000000000000000, 1.000000000000000000, 0.0000000000000000000 ) ) ;
#19 = VERTEX_POINT ( 'NONE', #145 ) ;
#20 = APPROVAL_PERSON_ORGANIZATION ( #125, #120, #220 ) ;
#21 = CALENDAR_DATE ( 2021, 8, 10 ) ;
#22 = DATE_TIME_ROLE ( 'classification_date' ) ;
#23 = COORDINATED_UNIVERSAL_TIME_OFFSET ( 1, 0, .AHEAD. ) ;
#24 = COORDINATED_UNIVERSAL_TIME_OFFSET ( 1, 0, .AHEAD. ) ;
#25 = ADVANCED_FACE ( 'NONE', ( #34, #29 ), #28, .T. ) ;
#26 = DATE_TIME_ROLE ( 'creation_date' ) ;
#27 = FACE_OUTER_BOUND ( 'NONE', #140, .T. ) ;
#28 = CYLINDRICAL_SURFACE ( 'NONE', #143, 0.3449999999999987521 ) ;
#29 = FACE_OUTER_BOUND ( 'NONE', #142, .T. ) ;
#30 = PRODUCT_DEFINITION ( 'UNKNOWN', '', #16, #130 ) ;
#31 = DIRECTION ( 'NONE',  ( 0.0000000000000000000, 1.000000000000000000, 0.0000000000000000000 ) ) ;
#32 = AXIS2_PLACEMENT_3D ( 'NONE', #203, #180, #64 ) ;
#33 = CYLINDRICAL_SURFACE ( 'NONE', #76, 0.4999999999999980571 ) ;
#34 = FACE_OUTER_BOUND ( 'NONE', #98, .T. ) ;
#35 = VERTEX_POINT ( 'NONE', #117 ) ;
#36 = CALENDAR_DATE ( 2021, 8, 10 ) ;
#37 = PERSON_AND_ORGANIZATION_ROLE ( 'design_owner' ) ;
#38 = DIRECTION ( 'NONE',  ( 0.0000000000000000000, 0.0000000000000000000, 1.000000000000000000 ) ) ;
#39 = SECURITY_CLASSIFICATION ( '', '', #208 ) ;
#40 = ORIENTED_EDGE ( 'NONE', *, *, #48, .F. ) ;
#41 = ORIENTED_EDGE ( 'NONE', *, *, #184, .F. ) ;
#42 = ORIENTED_EDGE ( 'NONE', *, *, #44, .F. ) ;
#43 = DIRECTION ( 'NONE',  ( -3.491481338843133355E-15, 1.224646799147353207E-16, -1.000000000000000000 ) ) ;
#44 = EDGE_CURVE ( 'NONE', #95, #95, #150, .T. ) ;
#45 = PRODUCT_DEFINITION_SHAPE ( 'NONE', 'NONE',  #30 ) ;
#46 = AXIS2_PLACEMENT_3D ( 'NONE', #149, #4, #206 ) ;
#47 = DIRECTION ( 'NONE',  ( 4.275831445896958607E-31, 1.000000000000000000, 1.224646799147353207E-16 ) ) ;
#48 = EDGE_CURVE ( 'NONE', #19, #19, #182, .T. ) ;
#49 = DIRECTION ( 'NONE',  ( -3.491481338843133355E-15, 1.224646799147353207E-16, -1.000000000000000000 ) ) ;
#50 = CARTESIAN_POINT ( 'NONE',  ( 1.955229549752154679E-14, -6.858022075225177566E-16, 5.599999999999999645 ) ) ;
#51 = PERSON_AND_ORGANIZATION ( #134, #162 ) ;
#52 =( LENGTH_UNIT ( ) NAMED_UNIT ( * ) SI_UNIT ( .MILLI., .METRE. ) );
#53 = EDGE_CURVE ( 'NONE', #82, #82, #217, .T. ) ;
#54 = APPROVAL_STATUS ( 'not_yet_approved' ) ;
#55 = ORIENTED_EDGE ( 'NONE', *, *, #48, .T. ) ;
#56 = DIRECTION ( 'NONE',  ( 1.000000000000000000, 0.0000000000000000000, 0.0000000000000000000 ) ) ;
#57 = ORIENTED_EDGE ( 'NONE', *, *, #209, .T. ) ;
#58 = PLANE ( 'NONE',  #2 ) ;
#59 = CIRCLE ( 'NONE', #147, 0.3449999999999992517 ) ;
#60 = CARTESIAN_POINT ( 'NONE',  ( 1.043952920314096936E-13, -3.661693929450586610E-15, 29.90000000000000213 ) ) ;
#61 = PLANE ( 'NONE',  #183 ) ;
#62 = ADVANCED_FACE ( 'NONE', ( #67, #146 ), #33, .T. ) ;
#63 = CONICAL_SURFACE ( 'NONE', #32, 0.4999999999999970579, 0.2617993877991425244 ) ;
#64 = DIRECTION ( 'NONE',  ( 0.0000000000000000000, -1.000000000000000000, 0.0000000000000000000 ) ) ;
#65 = PLANE ( 'NONE',  #75 ) ;
#66 = AXIS2_PLACEMENT_3D ( 'NONE', #223, #166, #80 ) ;
#67 = FACE_OUTER_BOUND ( 'NONE', #172, .T. ) ;
#68 = APPROVAL_ROLE ( '' ) ;
#69 = DATE_AND_TIME ( #189, #102 ) ;
#70 = EDGE_LOOP ( 'NONE', ( #55 ) ) ;
#71 = AXIS2_PLACEMENT_3D ( 'NONE', #187, #109, #18 ) ;
#72 = EDGE_LOOP ( 'NONE', ( #40 ) ) ;
#73 = ADVANCED_FACE ( 'NONE', ( #129, #93 ), #198, .T. ) ;
#74 = FACE_OUTER_BOUND ( 'NONE', #175, .T. ) ;
#75 = AXIS2_PLACEMENT_3D ( 'NONE', #15, #148, #77 ) ;
#76 = AXIS2_PLACEMENT_3D ( 'NONE', #110, #43, #47 ) ;
#77 = DIRECTION ( 'NONE',  ( 4.275831445896958607E-31, 1.000000000000000000, 1.224646799147353207E-16 ) ) ;
#78 = CALENDAR_DATE ( 2021, 8, 10 ) ;
#79 = FACE_OUTER_BOUND ( 'NONE', #119, .T. ) ;
#80 = DIRECTION ( 'NONE',  ( -5.582405635905060081E-31, -1.000000000000000000, -1.571307496355811584E-16 ) ) ;
#81 = EDGE_CURVE ( 'NONE', #8, #8, #205, .T. ) ;
#82 = VERTEX_POINT ( 'NONE', #219 ) ;
#83 = AXIS2_PLACEMENT_3D ( 'NONE', #60, #124, #31 ) ;
#84 = CC_DESIGN_APPROVAL ( #120, ( #39 ) ) ;
#85 = PERSON_AND_ORGANIZATION_ROLE ( 'creator' ) ;
#86 = PERSON_AND_ORGANIZATION ( #134, #162 ) ;
#87 = CC_DESIGN_APPROVAL ( #157, ( #16 ) ) ;
#88 = DIRECTION ( 'NONE',  ( 0.0000000000000000000, 1.000000000000000000, 0.0000000000000000000 ) ) ;
#89 = DATE_AND_TIME ( #78, #107 ) ;
#90 = CLOSED_SHELL ( 'NONE', ( #128, #25, #14 ) ) ;
#91 = CC_DESIGN_SECURITY_CLASSIFICATION ( #39, ( #16 ) ) ;
#92 = CC_DESIGN_DATE_AND_TIME_ASSIGNMENT ( #97, #22, ( #39 ) ) ;
#93 = FACE_BOUND ( 'NONE', #144, .T. ) ;
#94 = DIRECTION ( 'NONE',  ( 0.0000000000000000000, 1.000000000000000000, 0.0000000000000000000 ) ) ;
#95 = VERTEX_POINT ( 'NONE', #167 ) ;
#96 = APPLICATION_PROTOCOL_DEFINITION ( 'international standard', 'config_control_design', 1994, #201 ) ;
#97 = DATE_AND_TIME ( #36, #118 ) ;
#98 = EDGE_LOOP ( 'NONE', ( #122 ) ) ;
#99 = AXIS2_PLACEMENT_3D ( 'NONE', #170, #38, #56 ) ;
#100 = MECHANICAL_CONTEXT ( 'NONE', #201, 'mechanical' ) ;
#101 = ORIENTED_EDGE ( 'NONE', *, *, #44, .T. ) ;
#102 = LOCAL_TIME ( 7, 14, 33.00000000000000000, #214 ) ;
#103 = EDGE_LOOP ( 'NONE', ( #218 ) ) ;
#104 = FACE_OUTER_BOUND ( 'NONE', #121, .T. ) ;
#105 = CC_DESIGN_PERSON_AND_ORGANIZATION_ASSIGNMENT ( #116, #85, ( #16 ) ) ;
#106 = DIRECTION ( 'NONE',  ( -3.491481338843133355E-15, 1.224646799147353207E-16, -1.000000000000000000 ) ) ;
#107 = LOCAL_TIME ( 7, 14, 33.00000000000000000, #179 ) ;
#108 = PRODUCT ( '55321', '55321', '', ( #100 ) ) ;
#109 = DIRECTION ( 'NONE',  ( -3.491481338843133355E-15, 1.224646799147353207E-16, -1.000000000000000000 ) ) ;
#110 = CARTESIAN_POINT ( 'NONE',  ( 0.0000000000000000000, 0.0000000000000000000, 0.0000000000000000000 ) ) ;
#111 = APPROVAL_DATE_TIME ( #69, #157 ) ;
#112 = ADVANCED_FACE ( 'NONE', ( #79 ), #65, .F. ) ;
#113 = PERSON_AND_ORGANIZATION_ROLE ( 'classification_officer' ) ;
#114 = CC_DESIGN_APPROVAL ( #204, ( #30 ) ) ;
#115 = APPROVAL_STATUS ( 'not_yet_approved' ) ;
#116 = PERSON_AND_ORGANIZATION ( #134, #162 ) ;
#117 = CARTESIAN_POINT ( 'NONE',  ( 1.047444401652940007E-13, 0.3999999999999953038, 30.00000000000000000 ) ) ;
#118 = LOCAL_TIME ( 7, 14, 33.00000000000000000, #23 ) ;
#119 = EDGE_LOOP ( 'NONE', ( #10 ) ) ;
#120 = APPROVAL ( #163, 'UNSPECIFIED' ) ;
#121 = EDGE_LOOP ( 'NONE', ( #101 ) ) ;
#122 = ORIENTED_EDGE ( 'NONE', *, *, #81, .F. ) ;
#123 = AXIS2_PLACEMENT_3D ( 'NONE', #132, #199, #88 ) ;
#124 = DIRECTION ( 'NONE',  ( -3.491481338843133355E-15, 1.224646799147353207E-16, -1.000000000000000000 ) ) ;
#125 = PERSON_AND_ORGANIZATION ( #134, #162 ) ;
#126 = CARTESIAN_POINT ( 'NONE',  ( 1.955229549752154679E-14, 2.587085625091688020E-33, 5.599999999999999645 ) ) ;
#127 =( GEOMETRIC_REPRESENTATION_CONTEXT ( 3 ) GLOBAL_UNCERTAINTY_ASSIGNED_CONTEXT ( ( #5 ) ) GLOBAL_UNIT_ASSIGNED_CONTEXT ( ( #52, #139, #155 ) ) REPRESENTATION_CONTEXT ( 'NONE', 'WORKASPACE' ) );
#128 = ADVANCED_FACE ( 'NONE', ( #185 ), #194, .T. ) ;
#129 = FACE_OUTER_BOUND ( 'NONE', #72, .T. ) ;
#130 = DESIGN_CONTEXT ( 'detailed design', #211, 'design' ) ;
#131 = MANIFOLD_SOLID_BREP ( 'Corps-Déplacer/Copier1[2]', #90 ) ;
#132 = CARTESIAN_POINT ( 'NONE',  ( 1.955229549752154679E-14, -6.858022075225177566E-16, 5.599999999999999645 ) ) ;
#133 = APPROVAL_PERSON_ORGANIZATION ( #141, #157, #68 ) ;
#134 = PERSON ( 'UNSPECIFIED', 'UNSPECIFIED', 'UNSPECIFIED', ('UNSPECIFIED'), ('UNSPECIFIED'), ('UNSPECIFIED') ) ;
#135 = DIRECTION ( 'NONE',  ( 0.0000000000000000000, 1.000000000000000000, 0.0000000000000000000 ) ) ;
#136 = APPLICATION_PROTOCOL_DEFINITION ( 'international standard', 'config_control_design', 1994, #211 ) ;
#137 = CARTESIAN_POINT ( 'NONE',  ( 7.237733053102631567E-16, 0.3449999999999982525, 0.2072969135645095773 ) ) ;
#138 = ADVANCED_FACE ( 'NONE', ( #74 ), #61, .F. ) ;
#139 =( NAMED_UNIT ( * ) PLANE_ANGLE_UNIT ( ) SI_UNIT ( $, .RADIAN. ) );
#140 = EDGE_LOOP ( 'NONE', ( #195 ) ) ;
#141 = PERSON_AND_ORGANIZATION ( #134, #162 ) ;
#142 = EDGE_LOOP ( 'NONE', ( #196 ) ) ;
#143 = AXIS2_PLACEMENT_3D ( 'NONE', #17, #106, #151 ) ;
#144 = EDGE_LOOP ( 'NONE', ( #57 ) ) ;
#145 = CARTESIAN_POINT ( 'NONE',  ( 1.043952920314096936E-13, 0.4999999999999954481, 29.90000000000000213 ) ) ;
#146 = FACE_OUTER_BOUND ( 'NONE', #70, .T. ) ;
#147 = AXIS2_PLACEMENT_3D ( 'NONE', #50, #49, #94 ) ;
#148 = DIRECTION ( 'NONE',  ( -3.491481338843133355E-15, 1.224646799147353207E-16, -1.000000000000000000 ) ) ;
#149 = CARTESIAN_POINT ( 'NONE',  ( 2.157200528880895899E-14, -7.566440906965588128E-16, 6.178467875173184076 ) ) ;
#150 = CIRCLE ( 'NONE', #46, 0.4999999999999970579 ) ;
#151 = DIRECTION ( 'NONE',  ( 4.275831445896958607E-31, 1.000000000000000000, 1.224646799147353207E-16 ) ) ;
#152 = PERSON_AND_ORGANIZATION ( #134, #162 ) ;
#153 = PERSON_AND_ORGANIZATION ( #134, #162 ) ;
#154 = COORDINATED_UNIVERSAL_TIME_OFFSET ( 1, 0, .AHEAD. ) ;
#155 =( NAMED_UNIT ( * ) SI_UNIT ( $, .STERADIAN. ) SOLID_ANGLE_UNIT ( ) );
#156 = ORIENTED_EDGE ( 'NONE', *, *, #184, .T. ) ;
#157 = APPROVAL ( #54, 'UNSPECIFIED' ) ;
#158 = AXIS2_PLACEMENT_3D ( 'NONE', #200, #165, #160 ) ;
#159 = APPROVAL_DATE_TIME ( #89, #120 ) ;
#160 = DIRECTION ( 'NONE',  ( 5.582405635905060081E-31, 1.000000000000000000, 1.571307496355811584E-16 ) ) ;
#161 = CARTESIAN_POINT ( 'NONE',  ( 1.047444401652940007E-13, -3.673940397442059178E-15, 30.00000000000000000 ) ) ;
#162 = ORGANIZATION ( 'UNSPECIFIED', 'UNSPECIFIED', '' ) ;
#163 = APPROVAL_STATUS ( 'not_yet_approved' ) ;
#164 = CC_DESIGN_PERSON_AND_ORGANIZATION_ASSIGNMENT ( #191, #7, ( #30 ) ) ;
#165 = DIRECTION ( 'NONE',  ( -3.491481338843133355E-15, 1.224646799147353207E-16, -1.000000000000000000 ) ) ;
#166 = DIRECTION ( 'NONE',  ( 3.491481338843133355E-15, -1.224646799147353207E-16, 1.000000000000000000 ) ) ;
#167 = CARTESIAN_POINT ( 'NONE',  ( 2.157200528880895899E-14, 0.4999999999999963363, 6.178467875173184076 ) ) ;
#168 = APPROVAL_DATE_TIME ( #169, #204 ) ;
#169 = DATE_AND_TIME ( #21, #202 ) ;
#170 = CARTESIAN_POINT ( 'NONE',  ( 0.0000000000000000000, 0.0000000000000000000, 0.0000000000000000000 ) ) ;
#171 = APPROVAL_PERSON_ORGANIZATION ( #153, #204, #12 ) ;
#172 = EDGE_LOOP ( 'NONE', ( #42 ) ) ;
#173 = CALENDAR_DATE ( 2021, 8, 10 ) ;
#174 = CC_DESIGN_PERSON_AND_ORGANIZATION_ASSIGNMENT ( #51, #113, ( #39 ) ) ;
#175 = EDGE_LOOP ( 'NONE', ( #156 ) ) ;
#176 = CARTESIAN_POINT ( 'NONE',  ( 1.955229549752154679E-14, 2.587085625091688020E-33, 5.599999999999999645 ) ) ;
#177 = DIRECTION ( 'NONE',  ( -4.275831445896958607E-31, -1.000000000000000000, -1.224646799147353207E-16 ) ) ;
#178 = ADVANCED_FACE ( 'NONE', ( #207, #104 ), #63, .T. ) ;
#179 = COORDINATED_UNIVERSAL_TIME_OFFSET ( 1, 0, .AHEAD. ) ;
#180 = DIRECTION ( 'NONE',  ( 3.491481338843133355E-15, -1.224646799147353207E-16, 1.000000000000000000 ) ) ;
#181 = DIRECTION ( 'NONE',  ( -4.275831445896958607E-31, -1.000000000000000000, -1.224646799147353207E-16 ) ) ;
#182 = CIRCLE ( 'NONE', #83, 0.4999999999999991673 ) ;
#183 = AXIS2_PLACEMENT_3D ( 'NONE', #126, #13, #181 ) ;
#184 = EDGE_CURVE ( 'NONE', #215, #215, #59, .T. ) ;
#185 = FACE_OUTER_BOUND ( 'NONE', #103, .T. ) ;
#186 = PRODUCT_RELATED_PRODUCT_CATEGORY ( 'detail', '', ( #108 ) ) ;
#187 = CARTESIAN_POINT ( 'NONE',  ( 1.047444401652940007E-13, -3.673940397442059178E-15, 30.00000000000000000 ) ) ;
#188 = CARTESIAN_POINT ( 'NONE',  ( 1.955229549752154679E-14, 0.3449999999999985301, 5.599999999999999645 ) ) ;
#189 = CALENDAR_DATE ( 2021, 8, 10 ) ;
#190 = LOCAL_TIME ( 7, 14, 33.00000000000000000, #24 ) ;
#191 = PERSON_AND_ORGANIZATION ( #134, #162 ) ;
#192 = CC_DESIGN_PERSON_AND_ORGANIZATION_ASSIGNMENT ( #86, #37, ( #108 ) ) ;
#193 = CLOSED_SHELL ( 'NONE', ( #138, #178, #62, #73, #112 ) ) ;
#194 = CONICAL_SURFACE ( 'NONE', #66, 0.3449999999999982525, 1.029744258676649649 ) ;
#195 = ORIENTED_EDGE ( 'NONE', *, *, #53, .F. ) ;
#196 = ORIENTED_EDGE ( 'NONE', *, *, #53, .T. ) ;
#197 = SHAPE_DEFINITION_REPRESENTATION ( #45, #11 ) ;
#198 = CONICAL_SURFACE ( 'NONE', #210, 0.3999999999999989675, 0.7853981633974694843 ) ;
#199 = DIRECTION ( 'NONE',  ( -3.491481338843133355E-15, 1.224646799147353207E-16, -1.000000000000000000 ) ) ;
#200 = CARTESIAN_POINT ( 'NONE',  ( 7.237733053102629595E-16, -2.538655016699021171E-17, 0.2072969135645095218 ) ) ;
#201 = APPLICATION_CONTEXT ( 'configuration controlled 3d designs of mechanical parts and assemblies' ) ;
#202 = LOCAL_TIME ( 7, 14, 33.00000000000000000, #154 ) ;
#203 = CARTESIAN_POINT ( 'NONE',  ( 2.157200528880895899E-14, -7.566440906965588128E-16, 6.178467875173184076 ) ) ;
#204 = APPROVAL ( #115, 'UNSPECIFIED' ) ;
#205 = CIRCLE ( 'NONE', #158, 0.3449999999999982525 ) ;
#206 = DIRECTION ( 'NONE',  ( 0.0000000000000000000, 1.000000000000000000, 0.0000000000000000000 ) ) ;
#207 = FACE_BOUND ( 'NONE', #213, .T. ) ;
#208 = SECURITY_CLASSIFICATION_LEVEL ( 'unclassified' ) ;
#209 = EDGE_CURVE ( 'NONE', #35, #35, #3, .T. ) ;
#210 = AXIS2_PLACEMENT_3D ( 'NONE', #161, #1, #135 ) ;
#211 = APPLICATION_CONTEXT ( 'configuration controlled 3d designs of mechanical parts and assemblies' ) ;
#212 = DATE_AND_TIME ( #173, #190 ) ;
#213 = EDGE_LOOP ( 'NONE', ( #41 ) ) ;
#214 = COORDINATED_UNIVERSAL_TIME_OFFSET ( 1, 0, .AHEAD. ) ;
#215 = VERTEX_POINT ( 'NONE', #188 ) ;
#216 = MANIFOLD_SOLID_BREP ( 'Corps-Déplacer/Copier1[1]', #193 ) ;
#217 = CIRCLE ( 'NONE', #123, 0.3449999999999992517 ) ;
#218 = ORIENTED_EDGE ( 'NONE', *, *, #81, .T. ) ;
#219 = CARTESIAN_POINT ( 'NONE',  ( 1.955229549752154679E-14, 0.3449999999999985301, 5.599999999999999645 ) ) ;
#220 = APPROVAL_ROLE ( '' ) ;
#221 = DIRECTION ( 'NONE',  ( 3.491481338843133355E-15, -1.224646799147353207E-16, 1.000000000000000000 ) ) ;
#222 = CC_DESIGN_DATE_AND_TIME_ASSIGNMENT ( #212, #26, ( #30 ) ) ;
#223 = CARTESIAN_POINT ( 'NONE',  ( 7.237733053102629595E-16, -2.538655016699021171E-17, 0.2072969135645095218 ) ) ;
ENDSEC;
END-ISO-10303-21;
