ISO-10303-21;
HEADER;
FILE_DESCRIPTION (( 'STEP AP203' ),
    '1' );
FILE_NAME ('55320.step',
    '2021-10-08T05:14:32',
    ( '' ),
    ( '' ),
    'SwSTEP 2.0',
    'SolidWorks 2019',
    '' );
FILE_SCHEMA (( 'CONFIG_CONTROL_DESIGN' ));
ENDSEC;

DATA;
#1 = DIRECTION ( 'NONE',  ( -3.491481338843133355E-15, 1.224646799147353207E-16, -1.000000000000000000 ) ) ;
#2 = FACE_OUTER_BOUND ( 'NONE', #48, .T. ) ;
#3 = CIRCLE ( 'NONE', #15, 0.3399999999999994138 ) ;
#4 = DATE_TIME_ROLE ( 'classification_date' ) ;
#5 = EDGE_LOOP ( 'NONE', ( #20 ) ) ;
#6 = UNCERTAINTY_MEASURE_WITH_UNIT (LENGTH_MEASURE( 1.000000000000000082E-05 ), #201, 'distance_accuracy_value', 'NONE');
#7 = ORIENTED_EDGE ( 'NONE', *, *, #186, .T. ) ;
#8 = PLANE ( 'NONE',  #149 ) ;
#9 = CIRCLE ( 'NONE', #152, 0.3399999999999984701 ) ;
#10 = CARTESIAN_POINT ( 'NONE',  ( 1.955229549752154679E-14, -6.858022075225177566E-16, 5.599999999999999645 ) ) ;
#11 = CARTESIAN_POINT ( 'NONE',  ( 1.955229549752154679E-14, 0.3399999999999987477, 5.599999999999999645 ) ) ;
#12 = COORDINATED_UNIVERSAL_TIME_OFFSET ( 1, 0, .AHEAD. ) ;
#13 = ADVANCED_FACE ( 'NONE', ( #157 ), #39, .F. ) ;
#14 = PERSON_AND_ORGANIZATION_ROLE ( 'design_supplier' ) ;
#15 = AXIS2_PLACEMENT_3D ( 'NONE', #86, #34, #176 ) ;
#16 = PERSON_AND_ORGANIZATION ( #134, #50 ) ;
#17 = CARTESIAN_POINT ( 'NONE',  ( 0.0000000000000000000, 0.0000000000000000000, 0.0000000000000000000 ) ) ;
#18 = DIRECTION ( 'NONE',  ( 4.275831445896958607E-31, 1.000000000000000000, 1.224646799147353207E-16 ) ) ;
#19 = AXIS2_PLACEMENT_3D ( 'NONE', #123, #192, #87 ) ;
#20 = ORIENTED_EDGE ( 'NONE', *, *, #117, .F. ) ;
#21 = CARTESIAN_POINT ( 'NONE',  ( 1.047444401652940007E-13, 2.999519565323652267E-33, 30.00000000000000000 ) ) ;
#22 = ADVANCED_FACE ( 'NONE', ( #211, #36 ), #140, .T. ) ;
#23 = VERTEX_POINT ( 'NONE', #92 ) ;
#24 = PRODUCT_DEFINITION_SHAPE ( 'NONE', 'NONE',  #145 ) ;
#25 = APPLICATION_PROTOCOL_DEFINITION ( 'international standard', 'config_control_design', 1994, #96 ) ;
#26 = AXIS2_PLACEMENT_3D ( 'NONE', #160, #142, #207 ) ;
#27 = PERSON_AND_ORGANIZATION ( #134, #50 ) ;
#28 = DATE_AND_TIME ( #120, #166 ) ;
#29 = CIRCLE ( 'NONE', #175, 0.3399999999999994138 ) ;
#30 = CC_DESIGN_PERSON_AND_ORGANIZATION_ASSIGNMENT ( #16, #14, ( #136 ) ) ;
#31 = MANIFOLD_SOLID_BREP ( 'Corps-Déplacer/Copier1[2]', #217 ) ;
#32 = CONICAL_SURFACE ( 'NONE', #130, 0.3999999999999989675, 0.7853981633974694843 ) ;
#33 = DATE_TIME_ROLE ( 'creation_date' ) ;
#34 = DIRECTION ( 'NONE',  ( -3.491481338843133355E-15, 1.224646799147353207E-16, -1.000000000000000000 ) ) ;
#35 = APPROVAL_DATE_TIME ( #28, #213 ) ;
#36 = FACE_OUTER_BOUND ( 'NONE', #162, .T. ) ;
#37 = CONICAL_SURFACE ( 'NONE', #26, 0.4999999999999970579, 0.2617993877991421359 ) ;
#38 = FACE_BOUND ( 'NONE', #206, .T. ) ;
#39 = PLANE ( 'NONE',  #57 ) ;
#40 = DIRECTION ( 'NONE',  ( 5.664499836433071716E-31, 1.000000000000000000, 1.594414959537513583E-16 ) ) ;
#41 = VERTEX_POINT ( 'NONE', #182 ) ;
#42 = VERTEX_POINT ( 'NONE', #89 ) ;
#43 = AXIS2_PLACEMENT_3D ( 'NONE', #73, #144, #70 ) ;
#44 = PERSON_AND_ORGANIZATION ( #134, #50 ) ;
#45 = APPROVAL ( #98, 'UNSPECIFIED' ) ;
#46 = CLOSED_SHELL ( 'NONE', ( #113, #67, #22, #172, #13 ) ) ;
#47 = AXIS2_PLACEMENT_3D ( 'NONE', #84, #158, #56 ) ;
#48 = EDGE_LOOP ( 'NONE', ( #196 ) ) ;
#49 = CC_DESIGN_APPROVAL ( #213, ( #136 ) ) ;
#50 = ORGANIZATION ( 'UNSPECIFIED', 'UNSPECIFIED', '' ) ;
#51 = ORIENTED_EDGE ( 'NONE', *, *, #117, .T. ) ;
#52 = EDGE_CURVE ( 'NONE', #146, #146, #3, .T. ) ;
#53 = CARTESIAN_POINT ( 'NONE',  ( 1.047444401652940007E-13, -3.673940397442059178E-15, 30.00000000000000000 ) ) ;
#54 = APPROVAL_STATUS ( 'not_yet_approved' ) ;
#55 = EDGE_LOOP ( 'NONE', ( #205 ) ) ;
#56 = DIRECTION ( 'NONE',  ( -5.664499836433071716E-31, -1.000000000000000000, -1.594414959537513583E-16 ) ) ;
#57 = AXIS2_PLACEMENT_3D ( 'NONE', #21, #59, #173 ) ;
#58 = CC_DESIGN_PERSON_AND_ORGANIZATION_ASSIGNMENT ( #65, #185, ( #68 ) ) ;
#59 = DIRECTION ( 'NONE',  ( -3.491481338843133355E-15, 1.224646799147353207E-16, -1.000000000000000000 ) ) ;
#60 = CARTESIAN_POINT ( 'NONE',  ( 1.955229549752154679E-14, 2.549591630525143359E-33, 5.599999999999999645 ) ) ;
#61 = DIRECTION ( 'NONE',  ( -3.491481338843133355E-15, 1.224646799147353207E-16, -1.000000000000000000 ) ) ;
#62 = AXIS2_PLACEMENT_3D ( 'NONE', #17, #193, #194 ) ;
#63 = DATE_AND_TIME ( #218, #159 ) ;
#64 = VERTEX_POINT ( 'NONE', #110 ) ;
#65 = PERSON_AND_ORGANIZATION ( #134, #50 ) ;
#66 = EDGE_LOOP ( 'NONE', ( #97 ) ) ;
#67 = ADVANCED_FACE ( 'NONE', ( #38, #177 ), #37, .T. ) ;
#68 = SECURITY_CLASSIFICATION ( '', '', #168 ) ;
#69 = PRODUCT ( '55320', '55320', '', ( #147 ) ) ;
#70 = DIRECTION ( 'NONE',  ( -4.275831445896958607E-31, -1.000000000000000000, -1.224646799147353207E-16 ) ) ;
#71 = CARTESIAN_POINT ( 'NONE',  ( 1.043952920314096936E-13, -3.661693929450586610E-15, 29.90000000000000213 ) ) ;
#72 = EDGE_LOOP ( 'NONE', ( #135 ) ) ;
#73 = CARTESIAN_POINT ( 'NONE',  ( 1.955229549752154679E-14, 2.549591630525143359E-33, 5.599999999999999645 ) ) ;
#74 = CARTESIAN_POINT ( 'NONE',  ( 1.047444401652940007E-13, -3.673940397442059178E-15, 30.00000000000000000 ) ) ;
#75 = CIRCLE ( 'NONE', #19, 0.4999999999999970579 ) ;
#76 = DIRECTION ( 'NONE',  ( 0.0000000000000000000, 0.0000000000000000000, 1.000000000000000000 ) ) ;
#77 = DIRECTION ( 'NONE',  ( 1.000000000000000000, 0.0000000000000000000, 0.0000000000000000000 ) ) ;
#78 = COORDINATED_UNIVERSAL_TIME_OFFSET ( 1, 0, .AHEAD. ) ;
#79 = PERSON_AND_ORGANIZATION ( #134, #50 ) ;
#80 = COORDINATED_UNIVERSAL_TIME_OFFSET ( 1, 0, .AHEAD. ) ;
#81 = EDGE_LOOP ( 'NONE', ( #178 ) ) ;
#82 = CALENDAR_DATE ( 2021, 8, 10 ) ;
#83 = CC_DESIGN_PERSON_AND_ORGANIZATION_ASSIGNMENT ( #109, #203, ( #69 ) ) ;
#84 = CARTESIAN_POINT ( 'NONE',  ( 7.132838371173611694E-16, -2.501862915007732670E-17, 0.2042926104693718325 ) ) ;
#85 = CC_DESIGN_SECURITY_CLASSIFICATION ( #68, ( #136 ) ) ;
#86 = CARTESIAN_POINT ( 'NONE',  ( 1.955229549752154679E-14, -6.858022075225177566E-16, 5.599999999999999645 ) ) ;
#87 = DIRECTION ( 'NONE',  ( 0.0000000000000000000, 1.000000000000000000, 0.0000000000000000000 ) ) ;
#88 = CC_DESIGN_APPROVAL ( #45, ( #68 ) ) ;
#89 = CARTESIAN_POINT ( 'NONE',  ( 1.043952920314096936E-13, 0.4999999999999954481, 29.90000000000000213 ) ) ;
#90 = PERSON_AND_ORGANIZATION_ROLE ( 'creator' ) ;
#91 = DATE_AND_TIME ( #181, #139 ) ;
#92 = CARTESIAN_POINT ( 'NONE',  ( 2.163715721756016410E-14, 0.4999999999999963363, 6.197128129211028735 ) ) ;
#93 = DATE_AND_TIME ( #220, #195 ) ;
#94 = DATE_AND_TIME ( #82, #155 ) ;
#95 = CC_DESIGN_DATE_AND_TIME_ASSIGNMENT ( #63, #33, ( #145 ) ) ;
#96 = APPLICATION_CONTEXT ( 'configuration controlled 3d designs of mechanical parts and assemblies' ) ;
#97 = ORIENTED_EDGE ( 'NONE', *, *, #189, .T. ) ;
#98 = APPROVAL_STATUS ( 'not_yet_approved' ) ;
#99 = FACE_OUTER_BOUND ( 'NONE', #66, .T. ) ;
#100 = PERSON_AND_ORGANIZATION ( #134, #50 ) ;
#101 = DESIGN_CONTEXT ( 'detailed design', #96, 'design' ) ;
#102 = ORIENTED_EDGE ( 'NONE', *, *, #52, .T. ) ;
#103 = APPROVAL_PERSON_ORGANIZATION ( #44, #199, #202 ) ;
#104 = DIRECTION ( 'NONE',  ( -3.491481338843133355E-15, 1.224646799147353207E-16, -1.000000000000000000 ) ) ;
#105 = CARTESIAN_POINT ( 'NONE',  ( 0.0000000000000000000, 0.0000000000000000000, 0.0000000000000000000 ) ) ;
#106 = PLANE ( 'NONE',  #43 ) ;
#107 = CARTESIAN_POINT ( 'NONE',  ( 1.047444401652940007E-13, 0.3999999999999953038, 30.00000000000000000 ) ) ;
#108 = CC_DESIGN_APPROVAL ( #199, ( #145 ) ) ;
#109 = PERSON_AND_ORGANIZATION ( #134, #50 ) ;
#110 = CARTESIAN_POINT ( 'NONE',  ( 7.132838371173613666E-16, 0.3399999999999984701, 0.2042926104693718881 ) ) ;
#111 = APPLICATION_CONTEXT ( 'configuration controlled 3d designs of mechanical parts and assemblies' ) ;
#112 = APPROVAL_STATUS ( 'not_yet_approved' ) ;
#113 = ADVANCED_FACE ( 'NONE', ( #119 ), #106, .F. ) ;
#114 = AXIS2_PLACEMENT_3D ( 'NONE', #165, #76, #77 ) ;
#115 = DIRECTION ( 'NONE',  ( -3.491481338843133355E-15, 1.224646799147353207E-16, -1.000000000000000000 ) ) ;
#116 = MANIFOLD_SOLID_BREP ( 'Corps-Déplacer/Copier1[1]', #46 ) ;
#117 = EDGE_CURVE ( 'NONE', #179, #179, #184, .T. ) ;
#118 = COORDINATED_UNIVERSAL_TIME_OFFSET ( 1, 0, .AHEAD. ) ;
#119 = FACE_OUTER_BOUND ( 'NONE', #137, .T. ) ;
#120 = CALENDAR_DATE ( 2021, 8, 10 ) ;
#121 = ORIENTED_EDGE ( 'NONE', *, *, #164, .T. ) ;
#122 = CC_DESIGN_DATE_AND_TIME_ASSIGNMENT ( #93, #4, ( #68 ) ) ;
#123 = CARTESIAN_POINT ( 'NONE',  ( 2.163715721756016410E-14, -7.589293127344311336E-16, 6.197128129211028735 ) ) ;
#124 = APPROVAL_PERSON_ORGANIZATION ( #79, #45, #153 ) ;
#125 = FACE_BOUND ( 'NONE', #190, .T. ) ;
#126 = DIRECTION ( 'NONE',  ( 0.0000000000000000000, 1.000000000000000000, 0.0000000000000000000 ) ) ;
#127 = ADVANCED_BREP_SHAPE_REPRESENTATION ( '55320', ( #116, #31, #114 ), #191 ) ;
#128 = DIRECTION ( 'NONE',  ( 0.0000000000000000000, 1.000000000000000000, 0.0000000000000000000 ) ) ;
#129 = ADVANCED_FACE ( 'NONE', ( #138, #214 ), #212, .T. ) ;
#130 = AXIS2_PLACEMENT_3D ( 'NONE', #74, #215, #197 ) ;
#131 = CARTESIAN_POINT ( 'NONE',  ( 7.132838371173611694E-16, -2.501862915007732670E-17, 0.2042926104693718325 ) ) ;
#132 = CC_DESIGN_PERSON_AND_ORGANIZATION_ASSIGNMENT ( #100, #204, ( #136 ) ) ;
#133 = AXIS2_PLACEMENT_3D ( 'NONE', #71, #200, #128 ) ;
#134 = PERSON ( 'UNSPECIFIED', 'UNSPECIFIED', 'UNSPECIFIED', ('UNSPECIFIED'), ('UNSPECIFIED'), ('UNSPECIFIED') ) ;
#135 = ORIENTED_EDGE ( 'NONE', *, *, #164, .F. ) ;
#136 = PRODUCT_DEFINITION_FORMATION_WITH_SPECIFIED_SOURCE ( 'ANY', '', #69, .NOT_KNOWN. ) ;
#137 = EDGE_LOOP ( 'NONE', ( #102 ) ) ;
#138 = FACE_OUTER_BOUND ( 'NONE', #55, .T. ) ;
#139 = LOCAL_TIME ( 7, 14, 32.00000000000000000, #148 ) ;
#140 = CYLINDRICAL_SURFACE ( 'NONE', #223, 0.4999999999999980571 ) ;
#141 = APPROVAL_ROLE ( '' ) ;
#142 = DIRECTION ( 'NONE',  ( 3.491481338843133355E-15, -1.224646799147353207E-16, 1.000000000000000000 ) ) ;
#143 = EDGE_LOOP ( 'NONE', ( #174 ) ) ;
#144 = DIRECTION ( 'NONE',  ( 3.491481338843133355E-15, -1.224646799147353207E-16, 1.000000000000000000 ) ) ;
#145 = PRODUCT_DEFINITION ( 'UNKNOWN', '', #136, #101 ) ;
#146 = VERTEX_POINT ( 'NONE', #11 ) ;
#147 = MECHANICAL_CONTEXT ( 'NONE', #111, 'mechanical' ) ;
#148 = COORDINATED_UNIVERSAL_TIME_OFFSET ( 1, 0, .AHEAD. ) ;
#149 = AXIS2_PLACEMENT_3D ( 'NONE', #60, #163, #219 ) ;
#150 = FACE_OUTER_BOUND ( 'NONE', #81, .T. ) ;
#151 =( NAMED_UNIT ( * ) SI_UNIT ( $, .STERADIAN. ) SOLID_ANGLE_UNIT ( ) );
#152 = AXIS2_PLACEMENT_3D ( 'NONE', #131, #115, #40 ) ;
#153 = APPROVAL_ROLE ( '' ) ;
#154 = ORIENTED_EDGE ( 'NONE', *, *, #52, .F. ) ;
#155 = LOCAL_TIME ( 7, 14, 32.00000000000000000, #12 ) ;
#156 = PRODUCT_RELATED_PRODUCT_CATEGORY ( 'detail', '', ( #69 ) ) ;
#157 = FACE_OUTER_BOUND ( 'NONE', #5, .T. ) ;
#158 = DIRECTION ( 'NONE',  ( 3.491481338843133355E-15, -1.224646799147353207E-16, 1.000000000000000000 ) ) ;
#159 = LOCAL_TIME ( 7, 14, 32.00000000000000000, #78 ) ;
#160 = CARTESIAN_POINT ( 'NONE',  ( 2.163715721756016410E-14, -7.589293127344311336E-16, 6.197128129211028735 ) ) ;
#161 = EDGE_LOOP ( 'NONE', ( #121 ) ) ;
#162 = EDGE_LOOP ( 'NONE', ( #7 ) ) ;
#163 = DIRECTION ( 'NONE',  ( 3.491481338843133355E-15, -1.224646799147353207E-16, 1.000000000000000000 ) ) ;
#164 = EDGE_CURVE ( 'NONE', #23, #23, #75, .T. ) ;
#165 = CARTESIAN_POINT ( 'NONE',  ( 0.0000000000000000000, 0.0000000000000000000, 0.0000000000000000000 ) ) ;
#166 = LOCAL_TIME ( 7, 14, 32.00000000000000000, #80 ) ;
#167 =( NAMED_UNIT ( * ) PLANE_ANGLE_UNIT ( ) SI_UNIT ( $, .RADIAN. ) );
#168 = SECURITY_CLASSIFICATION_LEVEL ( 'unclassified' ) ;
#169 = ADVANCED_FACE ( 'NONE', ( #99 ), #221, .T. ) ;
#170 = SHAPE_DEFINITION_REPRESENTATION ( #24, #127 ) ;
#171 = AXIS2_PLACEMENT_3D ( 'NONE', #53, #104, #126 ) ;
#172 = ADVANCED_FACE ( 'NONE', ( #2, #125 ), #32, .T. ) ;
#173 = DIRECTION ( 'NONE',  ( 4.275831445896958607E-31, 1.000000000000000000, 1.224646799147353207E-16 ) ) ;
#174 = ORIENTED_EDGE ( 'NONE', *, *, #222, .T. ) ;
#175 = AXIS2_PLACEMENT_3D ( 'NONE', #10, #61, #198 ) ;
#176 = DIRECTION ( 'NONE',  ( 0.0000000000000000000, 1.000000000000000000, 0.0000000000000000000 ) ) ;
#177 = FACE_OUTER_BOUND ( 'NONE', #161, .T. ) ;
#178 = ORIENTED_EDGE ( 'NONE', *, *, #222, .F. ) ;
#179 = VERTEX_POINT ( 'NONE', #107 ) ;
#180 = CC_DESIGN_PERSON_AND_ORGANIZATION_ASSIGNMENT ( #27, #90, ( #145 ) ) ;
#181 = CALENDAR_DATE ( 2021, 8, 10 ) ;
#182 = CARTESIAN_POINT ( 'NONE',  ( 1.955229549752154679E-14, 0.3399999999999987477, 5.599999999999999645 ) ) ;
#183 = APPROVAL_DATE_TIME ( #91, #199 ) ;
#184 = CIRCLE ( 'NONE', #171, 0.3999999999999989675 ) ;
#185 = PERSON_AND_ORGANIZATION_ROLE ( 'classification_officer' ) ;
#186 = EDGE_CURVE ( 'NONE', #42, #42, #209, .T. ) ;
#187 = APPROVAL_DATE_TIME ( #94, #45 ) ;
#188 = APPROVAL_PERSON_ORGANIZATION ( #210, #213, #141 ) ;
#189 = EDGE_CURVE ( 'NONE', #64, #64, #9, .T. ) ;
#190 = EDGE_LOOP ( 'NONE', ( #51 ) ) ;
#191 =( GEOMETRIC_REPRESENTATION_CONTEXT ( 3 ) GLOBAL_UNCERTAINTY_ASSIGNED_CONTEXT ( ( #6 ) ) GLOBAL_UNIT_ASSIGNED_CONTEXT ( ( #201, #167, #151 ) ) REPRESENTATION_CONTEXT ( 'NONE', 'WORKASPACE' ) );
#192 = DIRECTION ( 'NONE',  ( -3.491481338843133355E-15, 1.224646799147353207E-16, -1.000000000000000000 ) ) ;
#193 = DIRECTION ( 'NONE',  ( -3.491481338843133355E-15, 1.224646799147353207E-16, -1.000000000000000000 ) ) ;
#194 = DIRECTION ( 'NONE',  ( 4.275831445896959482E-31, 1.000000000000000000, 1.224646799147353207E-16 ) ) ;
#195 = LOCAL_TIME ( 7, 14, 32.00000000000000000, #118 ) ;
#196 = ORIENTED_EDGE ( 'NONE', *, *, #186, .F. ) ;
#197 = DIRECTION ( 'NONE',  ( 0.0000000000000000000, 1.000000000000000000, 0.0000000000000000000 ) ) ;
#198 = DIRECTION ( 'NONE',  ( 0.0000000000000000000, 1.000000000000000000, 0.0000000000000000000 ) ) ;
#199 = APPROVAL ( #112, 'UNSPECIFIED' ) ;
#200 = DIRECTION ( 'NONE',  ( -3.491481338843133355E-15, 1.224646799147353207E-16, -1.000000000000000000 ) ) ;
#201 =( LENGTH_UNIT ( ) NAMED_UNIT ( * ) SI_UNIT ( .MILLI., .METRE. ) );
#202 = APPROVAL_ROLE ( '' ) ;
#203 = PERSON_AND_ORGANIZATION_ROLE ( 'design_owner' ) ;
#204 = PERSON_AND_ORGANIZATION_ROLE ( 'creator' ) ;
#205 = ORIENTED_EDGE ( 'NONE', *, *, #189, .F. ) ;
#206 = EDGE_LOOP ( 'NONE', ( #154 ) ) ;
#207 = DIRECTION ( 'NONE',  ( 0.0000000000000000000, -1.000000000000000000, 0.0000000000000000000 ) ) ;
#208 = ADVANCED_FACE ( 'NONE', ( #150 ), #8, .T. ) ;
#209 = CIRCLE ( 'NONE', #133, 0.4999999999999991673 ) ;
#210 = PERSON_AND_ORGANIZATION ( #134, #50 ) ;
#211 = FACE_OUTER_BOUND ( 'NONE', #72, .T. ) ;
#212 = CYLINDRICAL_SURFACE ( 'NONE', #62, 0.3399999999999989142 ) ;
#213 = APPROVAL ( #54, 'UNSPECIFIED' ) ;
#214 = FACE_OUTER_BOUND ( 'NONE', #143, .T. ) ;
#215 = DIRECTION ( 'NONE',  ( -3.491481338843133355E-15, 1.224646799147353207E-16, -1.000000000000000000 ) ) ;
#216 = APPLICATION_PROTOCOL_DEFINITION ( 'international standard', 'config_control_design', 1994, #111 ) ;
#217 = CLOSED_SHELL ( 'NONE', ( #169, #129, #208 ) ) ;
#218 = CALENDAR_DATE ( 2021, 8, 10 ) ;
#219 = DIRECTION ( 'NONE',  ( -4.275831445896958607E-31, -1.000000000000000000, -1.224646799147353207E-16 ) ) ;
#220 = CALENDAR_DATE ( 2021, 8, 10 ) ;
#221 = CONICAL_SURFACE ( 'NONE', #47, 0.3399999999999984701, 1.029744258676649649 ) ;
#222 = EDGE_CURVE ( 'NONE', #41, #41, #29, .T. ) ;
#223 = AXIS2_PLACEMENT_3D ( 'NONE', #105, #1, #18 ) ;
ENDSEC;
END-ISO-10303-21;
