ISO-10303-21;
HEADER;
FILE_DESCRIPTION (( 'STEP AP203' ),
    '1' );
FILE_NAME ('55319.step',
    '2021-10-08T05:14:31',
    ( '' ),
    ( '' ),
    'SwSTEP 2.0',
    'SolidWorks 2019',
    '' );
FILE_SCHEMA (( 'CONFIG_CONTROL_DESIGN' ));
ENDSEC;

DATA;
#1 = ORIENTED_EDGE ( 'NONE', *, *, #112, .F. ) ;
#2 = DIRECTION ( 'NONE',  ( 3.491481338843133355E-15, -1.224646799147353207E-16, 1.000000000000000000 ) ) ;
#3 = ORIENTED_EDGE ( 'NONE', *, *, #157, .T. ) ;
#4 = CARTESIAN_POINT ( 'NONE',  ( 7.027943689244587876E-16, 0.3349999999999984657, 0.2012883073742340323 ) ) ;
#5 = ORIENTED_EDGE ( 'NONE', *, *, #92, .T. ) ;
#6 = CIRCLE ( 'NONE', #126, 0.3349999999999992983 ) ;
#7 = CIRCLE ( 'NONE', #195, 0.3349999999999992983 ) ;
#8 = CC_DESIGN_PERSON_AND_ORGANIZATION_ASSIGNMENT ( #54, #111, ( #159 ) ) ;
#9 = PRODUCT ( '55319', '55319', '', ( #210 ) ) ;
#10 = CARTESIAN_POINT ( 'NONE',  ( 1.960742034300549236E-14, 0.4999999999999963363, 5.615788383248873750 ) ) ;
#11 = APPROVAL_ROLE ( '' ) ;
#12 = DIRECTION ( 'NONE',  ( 3.491481338843133355E-15, -1.224646799147353207E-16, 1.000000000000000000 ) ) ;
#13 = CARTESIAN_POINT ( 'NONE',  ( 1.047444401652940007E-13, -3.673940397442059178E-15, 30.00000000000000000 ) ) ;
#14 = VERTEX_POINT ( 'NONE', #62 ) ;
#15 = DIRECTION ( 'NONE',  ( 0.0000000000000000000, 1.000000000000000000, 0.0000000000000000000 ) ) ;
#16 = EDGE_LOOP ( 'NONE', ( #187 ) ) ;
#17 = DIRECTION ( 'NONE',  ( 0.0000000000000000000, -1.000000000000000000, 0.0000000000000000000 ) ) ;
#18 = PLANE ( 'NONE',  #175 ) ;
#19 = DIRECTION ( 'NONE',  ( -3.491481338843133355E-15, 1.224646799147353207E-16, -1.000000000000000000 ) ) ;
#20 = PRODUCT_DEFINITION ( 'UNKNOWN', '', #123, #36 ) ;
#21 = ADVANCED_FACE ( 'NONE', ( #84 ), #18, .F. ) ;
#22 = APPROVAL_ROLE ( '' ) ;
#23 = AXIS2_PLACEMENT_3D ( 'NONE', #221, #143, #97 ) ;
#24 = PERSON_AND_ORGANIZATION ( #74, #110 ) ;
#25 = APPROVAL_PERSON_ORGANIZATION ( #198, #73, #77 ) ;
#26 = DIRECTION ( 'NONE',  ( 0.0000000000000000000, 1.000000000000000000, 0.0000000000000000000 ) ) ;
#27 = DIRECTION ( 'NONE',  ( -3.491481338843133355E-15, 1.224646799147353207E-16, -1.000000000000000000 ) ) ;
#28 = EDGE_LOOP ( 'NONE', ( #80 ) ) ;
#29 = CIRCLE ( 'NONE', #183, 0.4999999999999991673 ) ;
#30 = AXIS2_PLACEMENT_3D ( 'NONE', #145, #103, #17 ) ;
#31 = CARTESIAN_POINT ( 'NONE',  ( 1.047444401652940007E-13, 2.999519565323652267E-33, 30.00000000000000000 ) ) ;
#32 = EDGE_LOOP ( 'NONE', ( #149 ) ) ;
#33 = FACE_OUTER_BOUND ( 'NONE', #170, .T. ) ;
#34 = ORIENTED_EDGE ( 'NONE', *, *, #108, .T. ) ;
#35 = FACE_OUTER_BOUND ( 'NONE', #16, .T. ) ;
#36 = DESIGN_CONTEXT ( 'detailed design', #82, 'design' ) ;
#37 = CLOSED_SHELL ( 'NONE', ( #21, #215, #98, #57, #184 ) ) ;
#38 = CARTESIAN_POINT ( 'NONE',  ( 1.745740669421566993E-14, 0.3349999999999986877, 5.000000000000000888 ) ) ;
#39 = COORDINATED_UNIVERSAL_TIME_OFFSET ( 1, 0, .AHEAD. ) ;
#40 = LOCAL_TIME ( 7, 14, 31.00000000000000000, #156 ) ;
#41 = ADVANCED_BREP_SHAPE_REPRESENTATION ( '55319', ( #160, #163, #213 ), #193 ) ;
#42 = APPROVAL_STATUS ( 'not_yet_approved' ) ;
#43 = CC_DESIGN_PERSON_AND_ORGANIZATION_ASSIGNMENT ( #194, #70, ( #123 ) ) ;
#44 = CALENDAR_DATE ( 2021, 8, 10 ) ;
#45 = DIRECTION ( 'NONE',  ( 0.0000000000000000000, 1.000000000000000000, 0.0000000000000000000 ) ) ;
#46 = CYLINDRICAL_SURFACE ( 'NONE', #153, 0.3349999999999988542 ) ;
#47 = PLANE ( 'NONE',  #49 ) ;
#48 = ORIENTED_EDGE ( 'NONE', *, *, #108, .F. ) ;
#49 = AXIS2_PLACEMENT_3D ( 'NONE', #31, #101, #169 ) ;
#50 = DIRECTION ( 'NONE',  ( 4.275831445896958607E-31, 1.000000000000000000, 1.224646799147353207E-16 ) ) ;
#51 = CC_DESIGN_PERSON_AND_ORGANIZATION_ASSIGNMENT ( #55, #152, ( #123 ) ) ;
#52 = DIRECTION ( 'NONE',  ( -2.874522305055589083E-31, -1.000000000000000000, -1.618212197739566278E-16 ) ) ;
#53 = APPLICATION_CONTEXT ( 'configuration controlled 3d designs of mechanical parts and assemblies' ) ;
#54 = PERSON_AND_ORGANIZATION ( #74, #110 ) ;
#55 = PERSON_AND_ORGANIZATION ( #74, #110 ) ;
#56 = APPROVAL_STATUS ( 'not_yet_approved' ) ;
#57 = ADVANCED_FACE ( 'NONE', ( #223, #81 ), #87, .T. ) ;
#58 = CIRCLE ( 'NONE', #217, 0.4999999999999970024 ) ;
#59 = PERSON_AND_ORGANIZATION ( #74, #110 ) ;
#60 = PRODUCT_DEFINITION_SHAPE ( 'NONE', 'NONE',  #20 ) ;
#61 = FACE_OUTER_BOUND ( 'NONE', #118, .T. ) ;
#62 = CARTESIAN_POINT ( 'NONE',  ( 1.745740669421566993E-14, 0.3349999999999986877, 5.000000000000000888 ) ) ;
#63 =( NAMED_UNIT ( * ) SI_UNIT ( $, .STERADIAN. ) SOLID_ANGLE_UNIT ( ) );
#64 = DIRECTION ( 'NONE',  ( -4.275831445896958607E-31, -1.000000000000000000, -1.224646799147353207E-16 ) ) ;
#65 = EDGE_LOOP ( 'NONE', ( #208 ) ) ;
#66 = EDGE_LOOP ( 'NONE', ( #5 ) ) ;
#67 = LOCAL_TIME ( 7, 14, 31.00000000000000000, #39 ) ;
#68 = VERTEX_POINT ( 'NONE', #138 ) ;
#69 = DIRECTION ( 'NONE',  ( 1.000000000000000000, 0.0000000000000000000, 0.0000000000000000000 ) ) ;
#70 = PERSON_AND_ORGANIZATION_ROLE ( 'design_supplier' ) ;
#71 = CC_DESIGN_APPROVAL ( #176, ( #159 ) ) ;
#72 = SECURITY_CLASSIFICATION_LEVEL ( 'unclassified' ) ;
#73 = APPROVAL ( #42, 'UNSPECIFIED' ) ;
#74 = PERSON ( 'UNSPECIFIED', 'UNSPECIFIED', 'UNSPECIFIED', ('UNSPECIFIED'), ('UNSPECIFIED'), ('UNSPECIFIED') ) ;
#75 = ADVANCED_FACE ( 'NONE', ( #119 ), #94, .T. ) ;
#76 = VERTEX_POINT ( 'NONE', #10 ) ;
#77 = APPROVAL_ROLE ( '' ) ;
#78 = CARTESIAN_POINT ( 'NONE',  ( 1.745740669421566993E-14, -6.123233995736767268E-16, 5.000000000000000888 ) ) ;
#79 = FACE_OUTER_BOUND ( 'NONE', #102, .T. ) ;
#80 = ORIENTED_EDGE ( 'NONE', *, *, #121, .F. ) ;
#81 = FACE_BOUND ( 'NONE', #137, .T. ) ;
#82 = APPLICATION_CONTEXT ( 'configuration controlled 3d designs of mechanical parts and assemblies' ) ;
#83 = VERTEX_POINT ( 'NONE', #4 ) ;
#84 = FACE_OUTER_BOUND ( 'NONE', #168, .T. ) ;
#85 = CIRCLE ( 'NONE', #177, 0.3999999999999989675 ) ;
#86 = DATE_AND_TIME ( #214, #106 ) ;
#87 = CONICAL_SURFACE ( 'NONE', #178, 0.3999999999999989675, 0.7853981633974694843 ) ;
#88 = APPROVAL_PERSON_ORGANIZATION ( #24, #89, #11 ) ;
#89 = APPROVAL ( #95, 'UNSPECIFIED' ) ;
#90 = CIRCLE ( 'NONE', #23, 0.3349999999999984657 ) ;
#91 = CC_DESIGN_SECURITY_CLASSIFICATION ( #159, ( #123 ) ) ;
#92 = EDGE_CURVE ( 'NONE', #83, #83, #90, .T. ) ;
#93 = APPROVAL_DATE_TIME ( #216, #89 ) ;
#94 = CONICAL_SURFACE ( 'NONE', #192, 0.3349999999999984657, 1.029744258676649649 ) ;
#95 = APPROVAL_STATUS ( 'not_yet_approved' ) ;
#96 = PLANE ( 'NONE',  #141 ) ;
#97 = DIRECTION ( 'NONE',  ( 2.874522305055589083E-31, 1.000000000000000000, 1.618212197739566278E-16 ) ) ;
#98 = ADVANCED_FACE ( 'NONE', ( #79, #147 ), #114, .T. ) ;
#99 = CARTESIAN_POINT ( 'NONE',  ( 1.043952920314096936E-13, 0.4999999999999954481, 29.90000000000000213 ) ) ;
#100 = ORIENTED_EDGE ( 'NONE', *, *, #157, .F. ) ;
#101 = DIRECTION ( 'NONE',  ( -3.491481338843133355E-15, 1.224646799147353207E-16, -1.000000000000000000 ) ) ;
#102 = EDGE_LOOP ( 'NONE', ( #100 ) ) ;
#103 = DIRECTION ( 'NONE',  ( 3.491481338843133355E-15, -1.224646799147353207E-16, 1.000000000000000000 ) ) ;
#104 = ORIENTED_EDGE ( 'NONE', *, *, #204, .T. ) ;
#105 = CARTESIAN_POINT ( 'NONE',  ( 1.043952920314096936E-13, -3.661693929450586610E-15, 29.90000000000000213 ) ) ;
#106 = LOCAL_TIME ( 7, 14, 31.00000000000000000, #173 ) ;
#107 = PERSON_AND_ORGANIZATION ( #74, #110 ) ;
#108 = EDGE_CURVE ( 'NONE', #68, #68, #85, .T. ) ;
#109 = AXIS2_PLACEMENT_3D ( 'NONE', #203, #201, #50 ) ;
#110 = ORGANIZATION ( 'UNSPECIFIED', 'UNSPECIFIED', '' ) ;
#111 = PERSON_AND_ORGANIZATION_ROLE ( 'classification_officer' ) ;
#112 = EDGE_CURVE ( 'NONE', #209, #209, #6, .T. ) ;
#113 = COORDINATED_UNIVERSAL_TIME_OFFSET ( 1, 0, .AHEAD. ) ;
#114 = CYLINDRICAL_SURFACE ( 'NONE', #109, 0.4999999999999980571 ) ;
#115 = ADVANCED_FACE ( 'NONE', ( #61, #35 ), #46, .T. ) ;
#116 = DIRECTION ( 'NONE',  ( 3.491481338843133355E-15, -1.224646799147353207E-16, 1.000000000000000000 ) ) ;
#117 = CARTESIAN_POINT ( 'NONE',  ( 1.960742034300549236E-14, -6.877357268234622274E-16, 5.615788383248873750 ) ) ;
#118 = EDGE_LOOP ( 'NONE', ( #165 ) ) ;
#119 = FACE_OUTER_BOUND ( 'NONE', #66, .T. ) ;
#120 = DIRECTION ( 'NONE',  ( 0.0000000000000000000, 1.000000000000000000, 0.0000000000000000000 ) ) ;
#121 = EDGE_CURVE ( 'NONE', #129, #129, #29, .T. ) ;
#122 = PRODUCT_RELATED_PRODUCT_CATEGORY ( 'detail', '', ( #9 ) ) ;
#123 = PRODUCT_DEFINITION_FORMATION_WITH_SPECIFIED_SOURCE ( 'ANY', '', #9, .NOT_KNOWN. ) ;
#124 = CALENDAR_DATE ( 2021, 8, 10 ) ;
#125 = CALENDAR_DATE ( 2021, 8, 10 ) ;
#126 = AXIS2_PLACEMENT_3D ( 'NONE', #189, #19, #15 ) ;
#127 = CONICAL_SURFACE ( 'NONE', #30, 0.4999999999999970024, 0.2617993877991426910 ) ;
#128 = DATE_AND_TIME ( #125, #40 ) ;
#129 = VERTEX_POINT ( 'NONE', #99 ) ;
#130 = DIRECTION ( 'NONE',  ( -3.491481338843133355E-15, 1.224646799147353207E-16, -1.000000000000000000 ) ) ;
#131 = CARTESIAN_POINT ( 'NONE',  ( 1.047444401652940007E-13, -3.673940397442059178E-15, 30.00000000000000000 ) ) ;
#132 = FACE_OUTER_BOUND ( 'NONE', #185, .T. ) ;
#133 = CARTESIAN_POINT ( 'NONE',  ( 0.0000000000000000000, 0.0000000000000000000, 0.0000000000000000000 ) ) ;
#134 = EDGE_LOOP ( 'NONE', ( #1 ) ) ;
#135 = DIRECTION ( 'NONE',  ( -3.491481338843133355E-15, 1.224646799147353207E-16, -1.000000000000000000 ) ) ;
#136 = CC_DESIGN_APPROVAL ( #89, ( #20 ) ) ;
#137 = EDGE_LOOP ( 'NONE', ( #34 ) ) ;
#138 = CARTESIAN_POINT ( 'NONE',  ( 1.047444401652940007E-13, 0.3999999999999953038, 30.00000000000000000 ) ) ;
#139 = APPROVAL_DATE_TIME ( #199, #73 ) ;
#140 = DATE_TIME_ROLE ( 'creation_date' ) ;
#141 = AXIS2_PLACEMENT_3D ( 'NONE', #182, #12, #64 ) ;
#142 =( LENGTH_UNIT ( ) NAMED_UNIT ( * ) SI_UNIT ( .MILLI., .METRE. ) );
#143 = DIRECTION ( 'NONE',  ( -3.491481338843133355E-15, 1.224646799147353207E-16, -1.000000000000000000 ) ) ;
#144 = PERSON_AND_ORGANIZATION_ROLE ( 'design_owner' ) ;
#145 = CARTESIAN_POINT ( 'NONE',  ( 1.960742034300549236E-14, -6.877357268234622274E-16, 5.615788383248873750 ) ) ;
#146 = LOCAL_TIME ( 7, 14, 31.00000000000000000, #113 ) ;
#147 = FACE_OUTER_BOUND ( 'NONE', #65, .T. ) ;
#148 = FACE_BOUND ( 'NONE', #32, .T. ) ;
#149 = ORIENTED_EDGE ( 'NONE', *, *, #204, .F. ) ;
#150 = DIRECTION ( 'NONE',  ( 0.0000000000000000000, 1.000000000000000000, 0.0000000000000000000 ) ) ;
#151 = CC_DESIGN_APPROVAL ( #73, ( #123 ) ) ;
#152 = PERSON_AND_ORGANIZATION_ROLE ( 'creator' ) ;
#153 = AXIS2_PLACEMENT_3D ( 'NONE', #186, #130, #162 ) ;
#154 = APPROVAL_PERSON_ORGANIZATION ( #107, #176, #22 ) ;
#155 = CLOSED_SHELL ( 'NONE', ( #75, #115, #172 ) ) ;
#156 = COORDINATED_UNIVERSAL_TIME_OFFSET ( 1, 0, .AHEAD. ) ;
#157 = EDGE_CURVE ( 'NONE', #76, #76, #58, .T. ) ;
#158 = PERSON_AND_ORGANIZATION_ROLE ( 'creator' ) ;
#159 = SECURITY_CLASSIFICATION ( '', '', #72 ) ;
#160 = MANIFOLD_SOLID_BREP ( 'Corps-Déplacer/Copier1[1]', #37 ) ;
#161 = APPLICATION_PROTOCOL_DEFINITION ( 'international standard', 'config_control_design', 1994, #82 ) ;
#162 = DIRECTION ( 'NONE',  ( 4.275831445896958607E-31, 1.000000000000000000, 1.224646799147353454E-16 ) ) ;
#163 = MANIFOLD_SOLID_BREP ( 'Corps-Déplacer/Copier1[2]', #155 ) ;
#164 = FACE_OUTER_BOUND ( 'NONE', #134, .T. ) ;
#165 = ORIENTED_EDGE ( 'NONE', *, *, #92, .F. ) ;
#166 = DIRECTION ( 'NONE',  ( -3.491481338843133355E-15, 1.224646799147353207E-16, -1.000000000000000000 ) ) ;
#167 = DIRECTION ( 'NONE',  ( 0.0000000000000000000, 0.0000000000000000000, 1.000000000000000000 ) ) ;
#168 = EDGE_LOOP ( 'NONE', ( #104 ) ) ;
#169 = DIRECTION ( 'NONE',  ( 4.275831445896958607E-31, 1.000000000000000000, 1.224646799147353207E-16 ) ) ;
#170 = EDGE_LOOP ( 'NONE', ( #3 ) ) ;
#171 = DIRECTION ( 'NONE',  ( -3.491481338843133355E-15, 1.224646799147353207E-16, -1.000000000000000000 ) ) ;
#172 = ADVANCED_FACE ( 'NONE', ( #164 ), #96, .T. ) ;
#173 = COORDINATED_UNIVERSAL_TIME_OFFSET ( 1, 0, .AHEAD. ) ;
#174 = DATE_AND_TIME ( #124, #67 ) ;
#175 = AXIS2_PLACEMENT_3D ( 'NONE', #181, #2, #205 ) ;
#176 = APPROVAL ( #56, 'UNSPECIFIED' ) ;
#177 = AXIS2_PLACEMENT_3D ( 'NONE', #131, #135, #220 ) ;
#178 = AXIS2_PLACEMENT_3D ( 'NONE', #13, #171, #120 ) ;
#179 = LOCAL_TIME ( 7, 14, 31.00000000000000000, #202 ) ;
#180 = DIRECTION ( 'NONE',  ( -3.491481338843133355E-15, 1.224646799147353207E-16, -1.000000000000000000 ) ) ;
#181 = CARTESIAN_POINT ( 'NONE',  ( 1.745740669421566993E-14, -1.037090799770797730E-31, 5.000000000000000888 ) ) ;
#182 = CARTESIAN_POINT ( 'NONE',  ( 1.745740669421566993E-14, -1.037090799770797730E-31, 5.000000000000000888 ) ) ;
#183 = AXIS2_PLACEMENT_3D ( 'NONE', #105, #27, #45 ) ;
#184 = ADVANCED_FACE ( 'NONE', ( #132 ), #47, .F. ) ;
#185 = EDGE_LOOP ( 'NONE', ( #48 ) ) ;
#186 = CARTESIAN_POINT ( 'NONE',  ( 0.0000000000000000000, 0.0000000000000000000, 0.0000000000000000000 ) ) ;
#187 = ORIENTED_EDGE ( 'NONE', *, *, #112, .T. ) ;
#188 = UNCERTAINTY_MEASURE_WITH_UNIT (LENGTH_MEASURE( 1.000000000000000082E-05 ), #142, 'distance_accuracy_value', 'NONE');
#189 = CARTESIAN_POINT ( 'NONE',  ( 1.745740669421566993E-14, -6.123233995736767268E-16, 5.000000000000000888 ) ) ;
#190 = APPLICATION_PROTOCOL_DEFINITION ( 'international standard', 'config_control_design', 1994, #53 ) ;
#191 = APPROVAL_DATE_TIME ( #174, #176 ) ;
#192 = AXIS2_PLACEMENT_3D ( 'NONE', #207, #116, #52 ) ;
#193 =( GEOMETRIC_REPRESENTATION_CONTEXT ( 3 ) GLOBAL_UNCERTAINTY_ASSIGNED_CONTEXT ( ( #188 ) ) GLOBAL_UNIT_ASSIGNED_CONTEXT ( ( #142, #222, #63 ) ) REPRESENTATION_CONTEXT ( 'NONE', 'WORKASPACE' ) );
#194 = PERSON_AND_ORGANIZATION ( #74, #110 ) ;
#195 = AXIS2_PLACEMENT_3D ( 'NONE', #78, #166, #150 ) ;
#196 = CC_DESIGN_DATE_AND_TIME_ASSIGNMENT ( #86, #212, ( #159 ) ) ;
#197 = SHAPE_DEFINITION_REPRESENTATION ( #60, #41 ) ;
#198 = PERSON_AND_ORGANIZATION ( #74, #110 ) ;
#199 = DATE_AND_TIME ( #218, #146 ) ;
#200 = PERSON_AND_ORGANIZATION ( #74, #110 ) ;
#201 = DIRECTION ( 'NONE',  ( -3.491481338843133355E-15, 1.224646799147353207E-16, -1.000000000000000000 ) ) ;
#202 = COORDINATED_UNIVERSAL_TIME_OFFSET ( 1, 0, .AHEAD. ) ;
#203 = CARTESIAN_POINT ( 'NONE',  ( 0.0000000000000000000, 0.0000000000000000000, 0.0000000000000000000 ) ) ;
#204 = EDGE_CURVE ( 'NONE', #14, #14, #7, .T. ) ;
#205 = DIRECTION ( 'NONE',  ( -4.275831445896958607E-31, -1.000000000000000000, -1.224646799147353207E-16 ) ) ;
#206 = CC_DESIGN_PERSON_AND_ORGANIZATION_ASSIGNMENT ( #59, #158, ( #20 ) ) ;
#207 = CARTESIAN_POINT ( 'NONE',  ( 7.027943689244586890E-16, -2.465070813316442321E-17, 0.2012883073742339768 ) ) ;
#208 = ORIENTED_EDGE ( 'NONE', *, *, #121, .T. ) ;
#209 = VERTEX_POINT ( 'NONE', #38 ) ;
#210 = MECHANICAL_CONTEXT ( 'NONE', #53, 'mechanical' ) ;
#211 = CC_DESIGN_DATE_AND_TIME_ASSIGNMENT ( #128, #140, ( #20 ) ) ;
#212 = DATE_TIME_ROLE ( 'classification_date' ) ;
#213 = AXIS2_PLACEMENT_3D ( 'NONE', #133, #167, #69 ) ;
#214 = CALENDAR_DATE ( 2021, 8, 10 ) ;
#215 = ADVANCED_FACE ( 'NONE', ( #148, #33 ), #127, .T. ) ;
#216 = DATE_AND_TIME ( #44, #179 ) ;
#217 = AXIS2_PLACEMENT_3D ( 'NONE', #117, #180, #26 ) ;
#218 = CALENDAR_DATE ( 2021, 8, 10 ) ;
#219 = CC_DESIGN_PERSON_AND_ORGANIZATION_ASSIGNMENT ( #200, #144, ( #9 ) ) ;
#220 = DIRECTION ( 'NONE',  ( 0.0000000000000000000, 1.000000000000000000, 0.0000000000000000000 ) ) ;
#221 = CARTESIAN_POINT ( 'NONE',  ( 7.027943689244586890E-16, -2.465070813316442321E-17, 0.2012883073742339768 ) ) ;
#222 =( NAMED_UNIT ( * ) PLANE_ANGLE_UNIT ( ) SI_UNIT ( $, .RADIAN. ) );
#223 = FACE_OUTER_BOUND ( 'NONE', #28, .T. ) ;
ENDSEC;
END-ISO-10303-21;
