ISO-10303-21;
HEADER;
FILE_DESCRIPTION (( 'STEP AP203' ),
    '1' );
FILE_NAME ('55318.step',
    '2021-10-08T05:14:31',
    ( '' ),
    ( '' ),
    'SwSTEP 2.0',
    'SolidWorks 2019',
    '' );
FILE_SCHEMA (( 'CONFIG_CONTROL_DESIGN' ));
ENDSEC;

DATA;
#1 = AXIS2_PLACEMENT_3D ( 'NONE', #111, #95, #118 ) ;
#2 = DIRECTION ( 'NONE',  ( 4.275831445896958607E-31, 1.000000000000000000, 1.224646799147353207E-16 ) ) ;
#3 = CARTESIAN_POINT ( 'NONE',  ( 1.967257227175669116E-14, -6.900209488613343510E-16, 5.634448637286716632 ) ) ;
#4 = APPROVAL_DATE_TIME ( #104, #201 ) ;
#5 = AXIS2_PLACEMENT_3D ( 'NONE', #46, #144, #105 ) ;
#6 = CC_DESIGN_APPROVAL ( #201, ( #13 ) ) ;
#7 = FACE_OUTER_BOUND ( 'NONE', #38, .T. ) ;
#8 = APPROVAL_STATUS ( 'not_yet_approved' ) ;
#9 = ORIENTED_EDGE ( 'NONE', *, *, #116, .F. ) ;
#10 = AXIS2_PLACEMENT_3D ( 'NONE', #172, #152, #219 ) ;
#11 = APPLICATION_PROTOCOL_DEFINITION ( 'international standard', 'config_control_design', 1994, #28 ) ;
#12 = ADVANCED_FACE ( 'NONE', ( #68, #7 ), #26, .T. ) ;
#13 = SECURITY_CLASSIFICATION ( '', '', #122 ) ;
#14 = EDGE_LOOP ( 'NONE', ( #86 ) ) ;
#15 = EDGE_LOOP ( 'NONE', ( #221 ) ) ;
#16 =( GEOMETRIC_REPRESENTATION_CONTEXT ( 3 ) GLOBAL_UNCERTAINTY_ASSIGNED_CONTEXT ( ( #158 ) ) GLOBAL_UNIT_ASSIGNED_CONTEXT ( ( #213, #214, #195 ) ) REPRESENTATION_CONTEXT ( 'NONE', 'WORKASPACE' ) );
#17 = PRODUCT_DEFINITION_SHAPE ( 'NONE', 'NONE',  #130 ) ;
#18 = FACE_OUTER_BOUND ( 'NONE', #32, .T. ) ;
#19 = DIRECTION ( 'NONE',  ( 4.275831445896958607E-31, 1.000000000000000000, 1.224646799147353207E-16 ) ) ;
#20 = APPROVAL_ROLE ( '' ) ;
#21 = CARTESIAN_POINT ( 'NONE',  ( 1.047444401652940007E-13, -3.673940397442059178E-15, 30.00000000000000000 ) ) ;
#22 = AXIS2_PLACEMENT_3D ( 'NONE', #3, #136, #181 ) ;
#23 = APPROVAL ( #8, 'UNSPECIFIED' ) ;
#24 = CIRCLE ( 'NONE', #60, 0.3299999999999996270 ) ;
#25 = CC_DESIGN_SECURITY_CLASSIFICATION ( #13, ( #55 ) ) ;
#26 = CONICAL_SURFACE ( 'NONE', #5, 0.4999999999999970024, 0.2617993877991426355 ) ;
#27 = PERSON_AND_ORGANIZATION ( #64, #178 ) ;
#28 = APPLICATION_CONTEXT ( 'configuration controlled 3d designs of mechanical parts and assemblies' ) ;
#29 = APPLICATION_PROTOCOL_DEFINITION ( 'international standard', 'config_control_design', 1994, #138 ) ;
#30 = CIRCLE ( 'NONE', #1, 0.3999999999999989675 ) ;
#31 = FACE_OUTER_BOUND ( 'NONE', #147, .T. ) ;
#32 = EDGE_LOOP ( 'NONE', ( #88 ) ) ;
#33 = AXIS2_PLACEMENT_3D ( 'NONE', #191, #40, #119 ) ;
#34 = DIRECTION ( 'NONE',  ( -4.275831445896958607E-31, -1.000000000000000000, -1.224646799147353207E-16 ) ) ;
#35 = DIRECTION ( 'NONE',  ( -3.491481338843133355E-15, 1.224646799147353207E-16, -1.000000000000000000 ) ) ;
#36 = DIRECTION ( 'NONE',  ( -3.491481338843133355E-15, 1.224646799147353207E-16, -1.000000000000000000 ) ) ;
#37 = DIRECTION ( 'NONE',  ( 0.0000000000000000000, 1.000000000000000000, 0.0000000000000000000 ) ) ;
#38 = EDGE_LOOP ( 'NONE', ( #63 ) ) ;
#39 = ADVANCED_FACE ( 'NONE', ( #31, #123 ), #146, .T. ) ;
#40 = DIRECTION ( 'NONE',  ( -3.491481338843133355E-15, 1.224646799147353207E-16, -1.000000000000000000 ) ) ;
#41 = PERSON_AND_ORGANIZATION ( #64, #178 ) ;
#42 = AXIS2_PLACEMENT_3D ( 'NONE', #153, #150, #199 ) ;
#43 = PERSON_AND_ORGANIZATION ( #64, #178 ) ;
#44 = DATE_TIME_ROLE ( 'creation_date' ) ;
#45 = APPROVAL ( #217, 'UNSPECIFIED' ) ;
#46 = CARTESIAN_POINT ( 'NONE',  ( 1.967257227175669116E-14, -6.900209488613343510E-16, 5.634448637286716632 ) ) ;
#47 = SHAPE_DEFINITION_REPRESENTATION ( #17, #180 ) ;
#48 = DATE_AND_TIME ( #124, #134 ) ;
#49 = CARTESIAN_POINT ( 'NONE',  ( 0.0000000000000000000, 0.0000000000000000000, 0.0000000000000000000 ) ) ;
#50 = CONICAL_SURFACE ( 'NONE', #182, 0.3999999999999989675, 0.7853981633974694843 ) ;
#51 = PERSON_AND_ORGANIZATION ( #64, #178 ) ;
#52 = EDGE_LOOP ( 'NONE', ( #74 ) ) ;
#53 = CARTESIAN_POINT ( 'NONE',  ( 1.745740669421566678E-14, 2.474603641392053353E-33, 5.000000000000000000 ) ) ;
#54 = APPROVAL_PERSON_ORGANIZATION ( #151, #45, #20 ) ;
#55 = PRODUCT_DEFINITION_FORMATION_WITH_SPECIFIED_SOURCE ( 'ANY', '', #77, .NOT_KNOWN. ) ;
#56 = FACE_OUTER_BOUND ( 'NONE', #167, .T. ) ;
#57 = CARTESIAN_POINT ( 'NONE',  ( 1.043952920314096936E-13, 0.4999999999999954481, 29.90000000000000213 ) ) ;
#58 = CARTESIAN_POINT ( 'NONE',  ( 1.745740669421566678E-14, 0.3299999999999990163, 5.000000000000000000 ) ) ;
#59 = EDGE_CURVE ( 'NONE', #156, #156, #76, .T. ) ;
#60 = AXIS2_PLACEMENT_3D ( 'NONE', #142, #203, #37 ) ;
#61 = APPROVAL_STATUS ( 'not_yet_approved' ) ;
#62 = APPROVAL_DATE_TIME ( #99, #45 ) ;
#63 = ORIENTED_EDGE ( 'NONE', *, *, #59, .T. ) ;
#64 = PERSON ( 'UNSPECIFIED', 'UNSPECIFIED', 'UNSPECIFIED', ('UNSPECIFIED'), ('UNSPECIFIED'), ('UNSPECIFIED') ) ;
#65 = ORIENTED_EDGE ( 'NONE', *, *, #197, .F. ) ;
#66 = APPROVAL_ROLE ( '' ) ;
#67 = LOCAL_TIME ( 7, 14, 31.00000000000000000, #82 ) ;
#68 = FACE_BOUND ( 'NONE', #163, .T. ) ;
#69 = CARTESIAN_POINT ( 'NONE',  ( 1.745740669421566678E-14, 2.474603641392053353E-33, 5.000000000000000000 ) ) ;
#70 = DIRECTION ( 'NONE',  ( 2.918075673314003523E-31, 1.000000000000000000, 8.213652821859909678E-17 ) ) ;
#71 = DIRECTION ( 'NONE',  ( -3.491481338843133355E-15, 1.224646799147353207E-16, -1.000000000000000000 ) ) ;
#72 = EDGE_CURVE ( 'NONE', #137, #137, #30, .T. ) ;
#73 = FACE_OUTER_BOUND ( 'NONE', #52, .T. ) ;
#74 = ORIENTED_EDGE ( 'NONE', *, *, #91, .F. ) ;
#75 = FACE_OUTER_BOUND ( 'NONE', #14, .T. ) ;
#76 = CIRCLE ( 'NONE', #22, 0.4999999999999970024 ) ;
#77 = PRODUCT ( '55318', '55318', '', ( #100 ) ) ;
#78 = DATE_AND_TIME ( #108, #218 ) ;
#79 = AXIS2_PLACEMENT_3D ( 'NONE', #49, #159, #207 ) ;
#80 = APPROVAL_PERSON_ORGANIZATION ( #41, #23, #66 ) ;
#81 = PERSON_AND_ORGANIZATION ( #64, #178 ) ;
#82 = COORDINATED_UNIVERSAL_TIME_OFFSET ( 1, 0, .AHEAD. ) ;
#83 = EDGE_LOOP ( 'NONE', ( #85 ) ) ;
#84 = APPROVAL_ROLE ( '' ) ;
#85 = ORIENTED_EDGE ( 'NONE', *, *, #91, .T. ) ;
#86 = ORIENTED_EDGE ( 'NONE', *, *, #176, .T. ) ;
#87 = DIRECTION ( 'NONE',  ( -4.275831445896958607E-31, -1.000000000000000000, -1.224646799147353207E-16 ) ) ;
#88 = ORIENTED_EDGE ( 'NONE', *, *, #197, .T. ) ;
#89 = AXIS2_PLACEMENT_3D ( 'NONE', #196, #121, #2 ) ;
#90 = DIRECTION ( 'NONE',  ( 0.0000000000000000000, 1.000000000000000000, 0.0000000000000000000 ) ) ;
#91 = EDGE_CURVE ( 'NONE', #110, #110, #24, .T. ) ;
#92 = AXIS2_PLACEMENT_3D ( 'NONE', #53, #133, #34 ) ;
#93 = VERTEX_POINT ( 'NONE', #189 ) ;
#94 = CARTESIAN_POINT ( 'NONE',  ( 6.923049007315573920E-16, 0.3299999999999989053, 0.1982840042790964818 ) ) ;
#95 = DIRECTION ( 'NONE',  ( -3.491481338843133355E-15, 1.224646799147353207E-16, -1.000000000000000000 ) ) ;
#96 = DIRECTION ( 'NONE',  ( 0.0000000000000000000, 1.000000000000000000, 0.0000000000000000000 ) ) ;
#97 = AXIS2_PLACEMENT_3D ( 'NONE', #69, #131, #87 ) ;
#98 = LOCAL_TIME ( 7, 14, 31.00000000000000000, #102 ) ;
#99 = DATE_AND_TIME ( #162, #67 ) ;
#100 = MECHANICAL_CONTEXT ( 'NONE', #138, 'mechanical' ) ;
#101 = CONICAL_SURFACE ( 'NONE', #10, 0.3299999999999989053, 1.029744258676649649 ) ;
#102 = COORDINATED_UNIVERSAL_TIME_OFFSET ( 1, 0, .AHEAD. ) ;
#103 = PERSON_AND_ORGANIZATION_ROLE ( 'creator' ) ;
#104 = DATE_AND_TIME ( #148, #98 ) ;
#105 = DIRECTION ( 'NONE',  ( 0.0000000000000000000, -1.000000000000000000, 0.0000000000000000000 ) ) ;
#106 = CLOSED_SHELL ( 'NONE', ( #155, #12, #185, #215, #160 ) ) ;
#107 = EDGE_LOOP ( 'NONE', ( #165 ) ) ;
#108 = CALENDAR_DATE ( 2021, 8, 10 ) ;
#109 = CC_DESIGN_DATE_AND_TIME_ASSIGNMENT ( #198, #44, ( #130 ) ) ;
#110 = VERTEX_POINT ( 'NONE', #58 ) ;
#111 = CARTESIAN_POINT ( 'NONE',  ( 1.047444401652940007E-13, -3.673940397442059178E-15, 30.00000000000000000 ) ) ;
#112 = ORIENTED_EDGE ( 'NONE', *, *, #72, .F. ) ;
#113 = CC_DESIGN_PERSON_AND_ORGANIZATION_ASSIGNMENT ( #194, #103, ( #130 ) ) ;
#114 = VERTEX_POINT ( 'NONE', #57 ) ;
#115 = CARTESIAN_POINT ( 'NONE',  ( 1.967257227175669116E-14, 0.4999999999999963363, 5.634448637286716632 ) ) ;
#116 = EDGE_CURVE ( 'NONE', #114, #114, #223, .T. ) ;
#117 = CC_DESIGN_APPROVAL ( #23, ( #55 ) ) ;
#118 = DIRECTION ( 'NONE',  ( 0.0000000000000000000, 1.000000000000000000, 0.0000000000000000000 ) ) ;
#119 = DIRECTION ( 'NONE',  ( 0.0000000000000000000, 1.000000000000000000, 0.0000000000000000000 ) ) ;
#120 = PERSON_AND_ORGANIZATION_ROLE ( 'design_supplier' ) ;
#121 = DIRECTION ( 'NONE',  ( -3.491481338843133355E-15, 1.224646799147353207E-16, -1.000000000000000000 ) ) ;
#122 = SECURITY_CLASSIFICATION_LEVEL ( 'unclassified' ) ;
#123 = FACE_OUTER_BOUND ( 'NONE', #83, .T. ) ;
#124 = CALENDAR_DATE ( 2021, 8, 10 ) ;
#125 = CC_DESIGN_PERSON_AND_ORGANIZATION_ASSIGNMENT ( #81, #161, ( #13 ) ) ;
#126 = CLOSED_SHELL ( 'NONE', ( #205, #39, #204 ) ) ;
#127 = DATE_TIME_ROLE ( 'classification_date' ) ;
#128 = EDGE_LOOP ( 'NONE', ( #112 ) ) ;
#129 = CYLINDRICAL_SURFACE ( 'NONE', #188, 0.4999999999999980571 ) ;
#130 = PRODUCT_DEFINITION ( 'UNKNOWN', '', #55, #177 ) ;
#131 = DIRECTION ( 'NONE',  ( 3.491481338843133355E-15, -1.224646799147353207E-16, 1.000000000000000000 ) ) ;
#132 = CIRCLE ( 'NONE', #168, 0.3299999999999996270 ) ;
#133 = DIRECTION ( 'NONE',  ( 3.491481338843133355E-15, -1.224646799147353207E-16, 1.000000000000000000 ) ) ;
#134 = LOCAL_TIME ( 7, 14, 31.00000000000000000, #193 ) ;
#135 = FACE_OUTER_BOUND ( 'NONE', #128, .T. ) ;
#136 = DIRECTION ( 'NONE',  ( -3.491481338843133355E-15, 1.224646799147353207E-16, -1.000000000000000000 ) ) ;
#137 = VERTEX_POINT ( 'NONE', #154 ) ;
#138 = APPLICATION_CONTEXT ( 'configuration controlled 3d designs of mechanical parts and assemblies' ) ;
#139 = CC_DESIGN_APPROVAL ( #45, ( #130 ) ) ;
#140 = VERTEX_POINT ( 'NONE', #94 ) ;
#141 = CC_DESIGN_DATE_AND_TIME_ASSIGNMENT ( #48, #127, ( #13 ) ) ;
#142 = CARTESIAN_POINT ( 'NONE',  ( 1.745740669421566678E-14, -6.123233995736766282E-16, 5.000000000000000000 ) ) ;
#143 = COORDINATED_UNIVERSAL_TIME_OFFSET ( 1, 0, .AHEAD. ) ;
#144 = DIRECTION ( 'NONE',  ( 3.491481338843133355E-15, -1.224646799147353207E-16, 1.000000000000000000 ) ) ;
#145 = CC_DESIGN_PERSON_AND_ORGANIZATION_ASSIGNMENT ( #43, #120, ( #55 ) ) ;
#146 = CYLINDRICAL_SURFACE ( 'NONE', #89, 0.3299999999999992384 ) ;
#147 = EDGE_LOOP ( 'NONE', ( #65 ) ) ;
#148 = CALENDAR_DATE ( 2021, 8, 10 ) ;
#149 = ORIENTED_EDGE ( 'NONE', *, *, #72, .T. ) ;
#150 = DIRECTION ( 'NONE',  ( -3.491481338843133355E-15, 1.224646799147353207E-16, -1.000000000000000000 ) ) ;
#151 = PERSON_AND_ORGANIZATION ( #64, #178 ) ;
#152 = DIRECTION ( 'NONE',  ( 3.491481338843133355E-15, -1.224646799147353207E-16, 1.000000000000000000 ) ) ;
#153 = CARTESIAN_POINT ( 'NONE',  ( 1.047444401652940007E-13, 2.999519565323652267E-33, 30.00000000000000000 ) ) ;
#154 = CARTESIAN_POINT ( 'NONE',  ( 1.047444401652940007E-13, 0.3999999999999953038, 30.00000000000000000 ) ) ;
#155 = ADVANCED_FACE ( 'NONE', ( #75 ), #170, .F. ) ;
#156 = VERTEX_POINT ( 'NONE', #115 ) ;
#157 = AXIS2_PLACEMENT_3D ( 'NONE', #220, #210, #70 ) ;
#158 = UNCERTAINTY_MEASURE_WITH_UNIT (LENGTH_MEASURE( 1.000000000000000082E-05 ), #213, 'distance_accuracy_value', 'NONE');
#159 = DIRECTION ( 'NONE',  ( 0.0000000000000000000, 0.0000000000000000000, 1.000000000000000000 ) ) ;
#160 = ADVANCED_FACE ( 'NONE', ( #135 ), #211, .F. ) ;
#161 = PERSON_AND_ORGANIZATION_ROLE ( 'classification_officer' ) ;
#162 = CALENDAR_DATE ( 2021, 8, 10 ) ;
#163 = EDGE_LOOP ( 'NONE', ( #186 ) ) ;
#164 = MANIFOLD_SOLID_BREP ( 'Corps-Déplacer/Copier1[2]', #126 ) ;
#165 = ORIENTED_EDGE ( 'NONE', *, *, #59, .F. ) ;
#166 = APPROVAL_DATE_TIME ( #78, #23 ) ;
#167 = EDGE_LOOP ( 'NONE', ( #9 ) ) ;
#168 = AXIS2_PLACEMENT_3D ( 'NONE', #183, #35, #90 ) ;
#169 = COORDINATED_UNIVERSAL_TIME_OFFSET ( 1, 0, .AHEAD. ) ;
#170 = PLANE ( 'NONE',  #97 ) ;
#171 = FACE_OUTER_BOUND ( 'NONE', #15, .T. ) ;
#172 = CARTESIAN_POINT ( 'NONE',  ( 6.923049007315572934E-16, -2.428278711625155669E-17, 0.1982840042790964541 ) ) ;
#173 = CC_DESIGN_PERSON_AND_ORGANIZATION_ASSIGNMENT ( #27, #209, ( #55 ) ) ;
#174 = MANIFOLD_SOLID_BREP ( 'Corps-Déplacer/Copier1[1]', #106 ) ;
#175 = CIRCLE ( 'NONE', #157, 0.3299999999999989053 ) ;
#176 = EDGE_CURVE ( 'NONE', #93, #93, #132, .T. ) ;
#177 = DESIGN_CONTEXT ( 'detailed design', #28, 'design' ) ;
#178 = ORGANIZATION ( 'UNSPECIFIED', 'UNSPECIFIED', '' ) ;
#179 = EDGE_LOOP ( 'NONE', ( #149 ) ) ;
#180 = ADVANCED_BREP_SHAPE_REPRESENTATION ( '55318', ( #174, #164, #79 ), #16 ) ;
#181 = DIRECTION ( 'NONE',  ( 0.0000000000000000000, 1.000000000000000000, 0.0000000000000000000 ) ) ;
#182 = AXIS2_PLACEMENT_3D ( 'NONE', #21, #36, #96 ) ;
#183 = CARTESIAN_POINT ( 'NONE',  ( 1.745740669421566678E-14, -6.123233995736766282E-16, 5.000000000000000000 ) ) ;
#184 = FACE_OUTER_BOUND ( 'NONE', #107, .T. ) ;
#185 = ADVANCED_FACE ( 'NONE', ( #184, #171 ), #129, .T. ) ;
#186 = ORIENTED_EDGE ( 'NONE', *, *, #176, .F. ) ;
#187 = FACE_BOUND ( 'NONE', #179, .T. ) ;
#188 = AXIS2_PLACEMENT_3D ( 'NONE', #202, #71, #19 ) ;
#189 = CARTESIAN_POINT ( 'NONE',  ( 1.745740669421566678E-14, 0.3299999999999990163, 5.000000000000000000 ) ) ;
#190 = LOCAL_TIME ( 7, 14, 31.00000000000000000, #169 ) ;
#191 = CARTESIAN_POINT ( 'NONE',  ( 1.043952920314096936E-13, -3.661693929450586610E-15, 29.90000000000000213 ) ) ;
#192 = CC_DESIGN_PERSON_AND_ORGANIZATION_ASSIGNMENT ( #51, #212, ( #77 ) ) ;
#193 = COORDINATED_UNIVERSAL_TIME_OFFSET ( 1, 0, .AHEAD. ) ;
#194 = PERSON_AND_ORGANIZATION ( #64, #178 ) ;
#195 =( NAMED_UNIT ( * ) SI_UNIT ( $, .STERADIAN. ) SOLID_ANGLE_UNIT ( ) );
#196 = CARTESIAN_POINT ( 'NONE',  ( 0.0000000000000000000, 0.0000000000000000000, 0.0000000000000000000 ) ) ;
#197 = EDGE_CURVE ( 'NONE', #140, #140, #175, .T. ) ;
#198 = DATE_AND_TIME ( #206, #190 ) ;
#199 = DIRECTION ( 'NONE',  ( 4.275831445896958607E-31, 1.000000000000000000, 1.224646799147353207E-16 ) ) ;
#200 = APPROVAL_PERSON_ORGANIZATION ( #208, #201, #84 ) ;
#201 = APPROVAL ( #61, 'UNSPECIFIED' ) ;
#202 = CARTESIAN_POINT ( 'NONE',  ( 0.0000000000000000000, 0.0000000000000000000, 0.0000000000000000000 ) ) ;
#203 = DIRECTION ( 'NONE',  ( -3.491481338843133355E-15, 1.224646799147353207E-16, -1.000000000000000000 ) ) ;
#204 = ADVANCED_FACE ( 'NONE', ( #73 ), #216, .T. ) ;
#205 = ADVANCED_FACE ( 'NONE', ( #18 ), #101, .T. ) ;
#206 = CALENDAR_DATE ( 2021, 8, 10 ) ;
#207 = DIRECTION ( 'NONE',  ( 1.000000000000000000, 0.0000000000000000000, 0.0000000000000000000 ) ) ;
#208 = PERSON_AND_ORGANIZATION ( #64, #178 ) ;
#209 = PERSON_AND_ORGANIZATION_ROLE ( 'creator' ) ;
#210 = DIRECTION ( 'NONE',  ( -3.491481338843133355E-15, 1.224646799147353207E-16, -1.000000000000000000 ) ) ;
#211 = PLANE ( 'NONE',  #42 ) ;
#212 = PERSON_AND_ORGANIZATION_ROLE ( 'design_owner' ) ;
#213 =( LENGTH_UNIT ( ) NAMED_UNIT ( * ) SI_UNIT ( .MILLI., .METRE. ) );
#214 =( NAMED_UNIT ( * ) PLANE_ANGLE_UNIT ( ) SI_UNIT ( $, .RADIAN. ) );
#215 = ADVANCED_FACE ( 'NONE', ( #56, #187 ), #50, .T. ) ;
#216 = PLANE ( 'NONE',  #92 ) ;
#217 = APPROVAL_STATUS ( 'not_yet_approved' ) ;
#218 = LOCAL_TIME ( 7, 14, 31.00000000000000000, #143 ) ;
#219 = DIRECTION ( 'NONE',  ( -2.918075673314003523E-31, -1.000000000000000000, -8.213652821859909678E-17 ) ) ;
#220 = CARTESIAN_POINT ( 'NONE',  ( 6.923049007315572934E-16, -2.428278711625155669E-17, 0.1982840042790964541 ) ) ;
#221 = ORIENTED_EDGE ( 'NONE', *, *, #116, .T. ) ;
#222 = PRODUCT_RELATED_PRODUCT_CATEGORY ( 'detail', '', ( #77 ) ) ;
#223 = CIRCLE ( 'NONE', #33, 0.4999999999999991673 ) ;
ENDSEC;
END-ISO-10303-21;
