ISO-10303-21;
HEADER;
FILE_DESCRIPTION (( 'STEP AP203' ),
    '1' );
FILE_NAME ('55317.step',
    '2021-10-08T05:14:30',
    ( '' ),
    ( '' ),
    'SwSTEP 2.0',
    'SolidWorks 2019',
    '' );
FILE_SCHEMA (( 'CONFIG_CONTROL_DESIGN' ));
ENDSEC;

DATA;
#1 = DIRECTION ( 'NONE',  ( -3.491481338843133355E-15, 1.224646799147353207E-16, -1.000000000000000000 ) ) ;
#2 = LOCAL_TIME ( 7, 14, 30.00000000000000000, #214 ) ;
#3 = FACE_OUTER_BOUND ( 'NONE', #195, .T. ) ;
#4 = CARTESIAN_POINT ( 'NONE',  ( 1.973772420050790259E-14, -6.923061708992067704E-16, 5.653108891324562180 ) ) ;
#5 = CARTESIAN_POINT ( 'NONE',  ( 1.745740669421566993E-14, -6.123233995736767268E-16, 5.000000000000000888 ) ) ;
#6 = APPLICATION_CONTEXT ( 'configuration controlled 3d designs of mechanical parts and assemblies' ) ;
#7 = DIRECTION ( 'NONE',  ( -3.491481338843133355E-15, 1.224646799147353207E-16, -1.000000000000000000 ) ) ;
#8 = CARTESIAN_POINT ( 'NONE',  ( 6.818154325386548130E-16, -2.391486609933865012E-17, 0.1952797011839585983 ) ) ;
#9 = APPROVAL_DATE_TIME ( #78, #217 ) ;
#10 = CIRCLE ( 'NONE', #37, 0.4999999999999991673 ) ;
#11 = MECHANICAL_CONTEXT ( 'NONE', #6, 'mechanical' ) ;
#12 = PRODUCT ( '55317', '55317', '', ( #11 ) ) ;
#13 = DIRECTION ( 'NONE',  ( 4.275831445896958607E-31, 1.000000000000000000, 1.224646799147353207E-16 ) ) ;
#14 = AXIS2_PLACEMENT_3D ( 'NONE', #155, #20, #33 ) ;
#15 = CC_DESIGN_PERSON_AND_ORGANIZATION_ASSIGNMENT ( #93, #80, ( #173 ) ) ;
#16 = VERTEX_POINT ( 'NONE', #218 ) ;
#17 = APPROVAL_PERSON_ORGANIZATION ( #90, #190, #163 ) ;
#18 = ORIENTED_EDGE ( 'NONE', *, *, #119, .T. ) ;
#19 = MANIFOLD_SOLID_BREP ( 'Corps-Déplacer/Copier1[2]', #43 ) ;
#20 = DIRECTION ( 'NONE',  ( -3.491481338843133355E-15, 1.224646799147353207E-16, -1.000000000000000000 ) ) ;
#21 = DIRECTION ( 'NONE',  ( -3.491481338843133355E-15, 1.224646799147353207E-16, -1.000000000000000000 ) ) ;
#22 = DIRECTION ( 'NONE',  ( 0.0000000000000000000, 1.000000000000000000, 0.0000000000000000000 ) ) ;
#23 = PRODUCT_RELATED_PRODUCT_CATEGORY ( 'detail', '', ( #12 ) ) ;
#24 = PERSON_AND_ORGANIZATION ( #179, #125 ) ;
#25 = COORDINATED_UNIVERSAL_TIME_OFFSET ( 1, 0, .AHEAD. ) ;
#26 =( GEOMETRIC_REPRESENTATION_CONTEXT ( 3 ) GLOBAL_UNCERTAINTY_ASSIGNED_CONTEXT ( ( #175 ) ) GLOBAL_UNIT_ASSIGNED_CONTEXT ( ( #208, #91, #127 ) ) REPRESENTATION_CONTEXT ( 'NONE', 'WORKASPACE' ) );
#27 = APPROVAL_ROLE ( '' ) ;
#28 = APPROVAL_DATE_TIME ( #148, #181 ) ;
#29 = EDGE_LOOP ( 'NONE', ( #118 ) ) ;
#30 = ADVANCED_FACE ( 'NONE', ( #194, #110 ), #35, .T. ) ;
#31 = AXIS2_PLACEMENT_3D ( 'NONE', #114, #49, #67 ) ;
#32 = CARTESIAN_POINT ( 'NONE',  ( 1.043952920314096936E-13, 0.4999999999999954481, 29.90000000000000213 ) ) ;
#33 = DIRECTION ( 'NONE',  ( 0.0000000000000000000, 1.000000000000000000, 0.0000000000000000000 ) ) ;
#34 = ORIENTED_EDGE ( 'NONE', *, *, #106, .F. ) ;
#35 = CYLINDRICAL_SURFACE ( 'NONE', #134, 0.3249999999999993450 ) ;
#36 = DIRECTION ( 'NONE',  ( -4.275831445896958607E-31, -1.000000000000000000, -1.224646799147353207E-16 ) ) ;
#37 = AXIS2_PLACEMENT_3D ( 'NONE', #159, #7, #104 ) ;
#38 = DESIGN_CONTEXT ( 'detailed design', #113, 'design' ) ;
#39 = CONICAL_SURFACE ( 'NONE', #203, 0.3999999999999989675, 0.7853981633974694843 ) ;
#40 = CYLINDRICAL_SURFACE ( 'NONE', #149, 0.4999999999999980571 ) ;
#41 = PERSON_AND_ORGANIZATION_ROLE ( 'design_supplier' ) ;
#42 = AXIS2_PLACEMENT_3D ( 'NONE', #85, #1, #154 ) ;
#43 = CLOSED_SHELL ( 'NONE', ( #150, #30, #164 ) ) ;
#44 = APPROVAL_PERSON_ORGANIZATION ( #83, #217, #108 ) ;
#45 = PERSON_AND_ORGANIZATION ( #179, #125 ) ;
#46 = CC_DESIGN_PERSON_AND_ORGANIZATION_ASSIGNMENT ( #213, #61, ( #12 ) ) ;
#47 = CIRCLE ( 'NONE', #14, 0.4999999999999970024 ) ;
#48 = ORIENTED_EDGE ( 'NONE', *, *, #170, .T. ) ;
#49 = DIRECTION ( 'NONE',  ( -3.491481338843133355E-15, 1.224646799147353207E-16, -1.000000000000000000 ) ) ;
#50 = EDGE_LOOP ( 'NONE', ( #152 ) ) ;
#51 = DATE_AND_TIME ( #94, #147 ) ;
#52 = CC_DESIGN_PERSON_AND_ORGANIZATION_ASSIGNMENT ( #24, #59, ( #97 ) ) ;
#53 = DIRECTION ( 'NONE',  ( 0.0000000000000000000, 1.000000000000000000, 0.0000000000000000000 ) ) ;
#54 = EDGE_LOOP ( 'NONE', ( #69 ) ) ;
#55 = FACE_BOUND ( 'NONE', #29, .T. ) ;
#56 = EDGE_CURVE ( 'NONE', #99, #99, #47, .T. ) ;
#57 = DIRECTION ( 'NONE',  ( 3.491481338843133355E-15, -1.224646799147353207E-16, 1.000000000000000000 ) ) ;
#58 = ADVANCED_FACE ( 'NONE', ( #209 ), #101, .F. ) ;
#59 = PERSON_AND_ORGANIZATION_ROLE ( 'creator' ) ;
#60 = CARTESIAN_POINT ( 'NONE',  ( 0.0000000000000000000, 0.0000000000000000000, 0.0000000000000000000 ) ) ;
#61 = PERSON_AND_ORGANIZATION_ROLE ( 'design_owner' ) ;
#62 = DATE_AND_TIME ( #187, #2 ) ;
#63 = CARTESIAN_POINT ( 'NONE',  ( 1.047444401652940007E-13, 0.3999999999999953038, 30.00000000000000000 ) ) ;
#64 = CC_DESIGN_DATE_AND_TIME_ASSIGNMENT ( #51, #186, ( #97 ) ) ;
#65 = EDGE_LOOP ( 'NONE', ( #87 ) ) ;
#66 = ORIENTED_EDGE ( 'NONE', *, *, #56, .F. ) ;
#67 = DIRECTION ( 'NONE',  ( 0.0000000000000000000, 1.000000000000000000, 0.0000000000000000000 ) ) ;
#68 = EDGE_LOOP ( 'NONE', ( #48 ) ) ;
#69 = ORIENTED_EDGE ( 'NONE', *, *, #210, .F. ) ;
#70 = DIRECTION ( 'NONE',  ( -3.491481338843133355E-15, 1.224646799147353207E-16, -1.000000000000000000 ) ) ;
#71 = CLOSED_SHELL ( 'NONE', ( #112, #201, #207, #129, #58 ) ) ;
#72 = LOCAL_TIME ( 7, 14, 30.00000000000000000, #168 ) ;
#73 = CC_DESIGN_APPROVAL ( #190, ( #97 ) ) ;
#74 = PERSON_AND_ORGANIZATION ( #179, #125 ) ;
#75 = ADVANCED_BREP_SHAPE_REPRESENTATION ( '55317', ( #167, #19, #156 ), #26 ) ;
#76 = COORDINATED_UNIVERSAL_TIME_OFFSET ( 1, 0, .AHEAD. ) ;
#77 = AXIS2_PLACEMENT_3D ( 'NONE', #5, #70, #140 ) ;
#78 = DATE_AND_TIME ( #162, #141 ) ;
#79 = APPLICATION_PROTOCOL_DEFINITION ( 'international standard', 'config_control_design', 1994, #6 ) ;
#80 = PERSON_AND_ORGANIZATION_ROLE ( 'classification_officer' ) ;
#81 = CC_DESIGN_PERSON_AND_ORGANIZATION_ASSIGNMENT ( #74, #146, ( #131 ) ) ;
#82 = CALENDAR_DATE ( 2021, 8, 10 ) ;
#83 = PERSON_AND_ORGANIZATION ( #179, #125 ) ;
#84 = VERTEX_POINT ( 'NONE', #153 ) ;
#85 = CARTESIAN_POINT ( 'NONE',  ( 1.047444401652940007E-13, 2.999519565323652267E-33, 30.00000000000000000 ) ) ;
#86 = PLANE ( 'NONE',  #160 ) ;
#87 = ORIENTED_EDGE ( 'NONE', *, *, #119, .F. ) ;
#88 = FACE_OUTER_BOUND ( 'NONE', #172, .T. ) ;
#89 = DIRECTION ( 'NONE',  ( -3.491481338843133355E-15, 1.224646799147353207E-16, -1.000000000000000000 ) ) ;
#90 = PERSON_AND_ORGANIZATION ( #179, #125 ) ;
#91 =( NAMED_UNIT ( * ) PLANE_ANGLE_UNIT ( ) SI_UNIT ( $, .RADIAN. ) );
#92 = APPROVAL_STATUS ( 'not_yet_approved' ) ;
#93 = PERSON_AND_ORGANIZATION ( #179, #125 ) ;
#94 = CALENDAR_DATE ( 2021, 8, 10 ) ;
#95 = DIRECTION ( 'NONE',  ( 1.000000000000000000, 0.0000000000000000000, 0.0000000000000000000 ) ) ;
#96 = AXIS2_PLACEMENT_3D ( 'NONE', #139, #196, #36 ) ;
#97 = PRODUCT_DEFINITION ( 'UNKNOWN', '', #131, #38 ) ;
#98 = DIRECTION ( 'NONE',  ( 3.491481338843133355E-15, -1.224646799147353207E-16, 1.000000000000000000 ) ) ;
#99 = VERTEX_POINT ( 'NONE', #205 ) ;
#100 = CIRCLE ( 'NONE', #77, 0.3249999999999997335 ) ;
#101 = PLANE ( 'NONE',  #42 ) ;
#102 = DIRECTION ( 'NONE',  ( -3.491481338843133355E-15, 1.224646799147353207E-16, -1.000000000000000000 ) ) ;
#103 = CONICAL_SURFACE ( 'NONE', #111, 0.3249999999999989009, 1.029744258676649649 ) ;
#104 = DIRECTION ( 'NONE',  ( 0.0000000000000000000, 1.000000000000000000, 0.0000000000000000000 ) ) ;
#105 = APPROVAL_DATE_TIME ( #166, #190 ) ;
#106 = EDGE_CURVE ( 'NONE', #84, #84, #199, .T. ) ;
#107 = APPROVAL_STATUS ( 'not_yet_approved' ) ;
#108 = APPROVAL_ROLE ( '' ) ;
#109 = EDGE_LOOP ( 'NONE', ( #34 ) ) ;
#110 = FACE_OUTER_BOUND ( 'NONE', #50, .T. ) ;
#111 = AXIS2_PLACEMENT_3D ( 'NONE', #171, #204, #117 ) ;
#112 = ADVANCED_FACE ( 'NONE', ( #88 ), #157, .F. ) ;
#113 = APPLICATION_CONTEXT ( 'configuration controlled 3d designs of mechanical parts and assemblies' ) ;
#114 = CARTESIAN_POINT ( 'NONE',  ( 1.047444401652940007E-13, -3.673940397442059178E-15, 30.00000000000000000 ) ) ;
#115 = CARTESIAN_POINT ( 'NONE',  ( 6.818154325386549116E-16, 0.3249999999999989009, 0.1952797011839586261 ) ) ;
#116 = ORIENTED_EDGE ( 'NONE', *, *, #170, .F. ) ;
#117 = DIRECTION ( 'NONE',  ( -2.962969145211141918E-31, -1.000000000000000000, -8.340016711426984871E-17 ) ) ;
#118 = ORIENTED_EDGE ( 'NONE', *, *, #161, .T. ) ;
#119 = EDGE_CURVE ( 'NONE', #16, #16, #100, .T. ) ;
#120 = DIRECTION ( 'NONE',  ( 4.275831445896958607E-31, 1.000000000000000000, 1.224646799147353207E-16 ) ) ;
#121 = CIRCLE ( 'NONE', #183, 0.3249999999999989009 ) ;
#122 = DIRECTION ( 'NONE',  ( -4.275831445896958607E-31, -1.000000000000000000, -1.224646799147353207E-16 ) ) ;
#123 = CARTESIAN_POINT ( 'NONE',  ( 1.047444401652940007E-13, -3.673940397442059178E-15, 30.00000000000000000 ) ) ;
#124 = FACE_OUTER_BOUND ( 'NONE', #221, .T. ) ;
#125 = ORGANIZATION ( 'UNSPECIFIED', 'UNSPECIFIED', '' ) ;
#126 = PERSON_AND_ORGANIZATION ( #179, #125 ) ;
#127 =( NAMED_UNIT ( * ) SI_UNIT ( $, .STERADIAN. ) SOLID_ANGLE_UNIT ( ) );
#128 = DIRECTION ( 'NONE',  ( 0.0000000000000000000, 0.0000000000000000000, 1.000000000000000000 ) ) ;
#129 = ADVANCED_FACE ( 'NONE', ( #211, #55 ), #39, .T. ) ;
#130 = CIRCLE ( 'NONE', #31, 0.3999999999999989675 ) ;
#131 = PRODUCT_DEFINITION_FORMATION_WITH_SPECIFIED_SOURCE ( 'ANY', '', #12, .NOT_KNOWN. ) ;
#132 = DATE_TIME_ROLE ( 'classification_date' ) ;
#133 = DIRECTION ( 'NONE',  ( -3.491481338843133355E-15, 1.224646799147353207E-16, -1.000000000000000000 ) ) ;
#134 = AXIS2_PLACEMENT_3D ( 'NONE', #192, #102, #120 ) ;
#135 = ORIENTED_EDGE ( 'NONE', *, *, #56, .T. ) ;
#136 = EDGE_LOOP ( 'NONE', ( #178 ) ) ;
#137 = DIRECTION ( 'NONE',  ( -3.491481338843133355E-15, 1.224646799147353207E-16, -1.000000000000000000 ) ) ;
#138 = EDGE_LOOP ( 'NONE', ( #176 ) ) ;
#139 = CARTESIAN_POINT ( 'NONE',  ( 1.745740669421566993E-14, -1.037840679662128720E-31, 5.000000000000000888 ) ) ;
#140 = DIRECTION ( 'NONE',  ( 0.0000000000000000000, 1.000000000000000000, 0.0000000000000000000 ) ) ;
#141 = LOCAL_TIME ( 7, 14, 30.00000000000000000, #180 ) ;
#142 = FACE_BOUND ( 'NONE', #65, .T. ) ;
#143 = CC_DESIGN_DATE_AND_TIME_ASSIGNMENT ( #62, #132, ( #173 ) ) ;
#144 = DIRECTION ( 'NONE',  ( 0.0000000000000000000, -1.000000000000000000, 0.0000000000000000000 ) ) ;
#145 = CALENDAR_DATE ( 2021, 8, 10 ) ;
#146 = PERSON_AND_ORGANIZATION_ROLE ( 'creator' ) ;
#147 = LOCAL_TIME ( 7, 14, 30.00000000000000000, #25 ) ;
#148 = DATE_AND_TIME ( #82, #72 ) ;
#149 = AXIS2_PLACEMENT_3D ( 'NONE', #158, #89, #13 ) ;
#150 = ADVANCED_FACE ( 'NONE', ( #220 ), #103, .T. ) ;
#151 = VERTEX_POINT ( 'NONE', #63 ) ;
#152 = ORIENTED_EDGE ( 'NONE', *, *, #106, .T. ) ;
#153 = CARTESIAN_POINT ( 'NONE',  ( 1.745740669421566993E-14, 0.3249999999999991229, 5.000000000000000888 ) ) ;
#154 = DIRECTION ( 'NONE',  ( 4.275831445896958607E-31, 1.000000000000000000, 1.224646799147353207E-16 ) ) ;
#155 = CARTESIAN_POINT ( 'NONE',  ( 1.973772420050790259E-14, -6.923061708992067704E-16, 5.653108891324562180 ) ) ;
#156 = AXIS2_PLACEMENT_3D ( 'NONE', #60, #128, #95 ) ;
#157 = PLANE ( 'NONE',  #96 ) ;
#158 = CARTESIAN_POINT ( 'NONE',  ( 0.0000000000000000000, 0.0000000000000000000, 0.0000000000000000000 ) ) ;
#159 = CARTESIAN_POINT ( 'NONE',  ( 1.043952920314096936E-13, -3.661693929450586610E-15, 29.90000000000000213 ) ) ;
#160 = AXIS2_PLACEMENT_3D ( 'NONE', #189, #98, #122 ) ;
#161 = EDGE_CURVE ( 'NONE', #151, #151, #130, .T. ) ;
#162 = CALENDAR_DATE ( 2021, 8, 10 ) ;
#163 = APPROVAL_ROLE ( '' ) ;
#164 = ADVANCED_FACE ( 'NONE', ( #193 ), #86, .T. ) ;
#165 = CONICAL_SURFACE ( 'NONE', #219, 0.4999999999999970024, 0.2617993877991425244 ) ;
#166 = DATE_AND_TIME ( #145, #188 ) ;
#167 = MANIFOLD_SOLID_BREP ( 'Corps-Déplacer/Copier1[1]', #71 ) ;
#168 = COORDINATED_UNIVERSAL_TIME_OFFSET ( 1, 0, .AHEAD. ) ;
#169 = AXIS2_PLACEMENT_3D ( 'NONE', #223, #21, #22 ) ;
#170 = EDGE_CURVE ( 'NONE', #191, #191, #10, .T. ) ;
#171 = CARTESIAN_POINT ( 'NONE',  ( 6.818154325386548130E-16, -2.391486609933865012E-17, 0.1952797011839585983 ) ) ;
#172 = EDGE_LOOP ( 'NONE', ( #18 ) ) ;
#173 = SECURITY_CLASSIFICATION ( '', '', #182 ) ;
#174 = EDGE_LOOP ( 'NONE', ( #116 ) ) ;
#175 = UNCERTAINTY_MEASURE_WITH_UNIT (LENGTH_MEASURE( 1.000000000000000082E-05 ), #208, 'distance_accuracy_value', 'NONE');
#176 = ORIENTED_EDGE ( 'NONE', *, *, #161, .F. ) ;
#177 = CC_DESIGN_APPROVAL ( #217, ( #131 ) ) ;
#178 = ORIENTED_EDGE ( 'NONE', *, *, #210, .T. ) ;
#179 = PERSON ( 'UNSPECIFIED', 'UNSPECIFIED', 'UNSPECIFIED', ('UNSPECIFIED'), ('UNSPECIFIED'), ('UNSPECIFIED') ) ;
#180 = COORDINATED_UNIVERSAL_TIME_OFFSET ( 1, 0, .AHEAD. ) ;
#181 = APPROVAL ( #107, 'UNSPECIFIED' ) ;
#182 = SECURITY_CLASSIFICATION_LEVEL ( 'unclassified' ) ;
#183 = AXIS2_PLACEMENT_3D ( 'NONE', #8, #133, #202 ) ;
#184 = APPROVAL_PERSON_ORGANIZATION ( #45, #181, #27 ) ;
#185 = APPLICATION_PROTOCOL_DEFINITION ( 'international standard', 'config_control_design', 1994, #113 ) ;
#186 = DATE_TIME_ROLE ( 'creation_date' ) ;
#187 = CALENDAR_DATE ( 2021, 8, 10 ) ;
#188 = LOCAL_TIME ( 7, 14, 30.00000000000000000, #76 ) ;
#189 = CARTESIAN_POINT ( 'NONE',  ( 1.745740669421566993E-14, -1.037840679662128720E-31, 5.000000000000000888 ) ) ;
#190 = APPROVAL ( #92, 'UNSPECIFIED' ) ;
#191 = VERTEX_POINT ( 'NONE', #32 ) ;
#192 = CARTESIAN_POINT ( 'NONE',  ( 0.0000000000000000000, 0.0000000000000000000, 0.0000000000000000000 ) ) ;
#193 = FACE_OUTER_BOUND ( 'NONE', #109, .T. ) ;
#194 = FACE_OUTER_BOUND ( 'NONE', #54, .T. ) ;
#195 = EDGE_LOOP ( 'NONE', ( #135 ) ) ;
#196 = DIRECTION ( 'NONE',  ( 3.491481338843133355E-15, -1.224646799147353207E-16, 1.000000000000000000 ) ) ;
#197 = FACE_OUTER_BOUND ( 'NONE', #68, .T. ) ;
#198 = PRODUCT_DEFINITION_SHAPE ( 'NONE', 'NONE',  #97 ) ;
#199 = CIRCLE ( 'NONE', #169, 0.3249999999999997335 ) ;
#200 = CC_DESIGN_APPROVAL ( #181, ( #173 ) ) ;
#201 = ADVANCED_FACE ( 'NONE', ( #142, #3 ), #165, .T. ) ;
#202 = DIRECTION ( 'NONE',  ( 2.962969145211141918E-31, 1.000000000000000000, 8.340016711426984871E-17 ) ) ;
#203 = AXIS2_PLACEMENT_3D ( 'NONE', #123, #137, #53 ) ;
#204 = DIRECTION ( 'NONE',  ( 3.491481338843133355E-15, -1.224646799147353207E-16, 1.000000000000000000 ) ) ;
#205 = CARTESIAN_POINT ( 'NONE',  ( 1.973772420050790259E-14, 0.4999999999999963363, 5.653108891324562180 ) ) ;
#206 = CC_DESIGN_SECURITY_CLASSIFICATION ( #173, ( #131 ) ) ;
#207 = ADVANCED_FACE ( 'NONE', ( #124, #197 ), #40, .T. ) ;
#208 =( LENGTH_UNIT ( ) NAMED_UNIT ( * ) SI_UNIT ( .MILLI., .METRE. ) );
#209 = FACE_OUTER_BOUND ( 'NONE', #138, .T. ) ;
#210 = EDGE_CURVE ( 'NONE', #222, #222, #121, .T. ) ;
#211 = FACE_OUTER_BOUND ( 'NONE', #174, .T. ) ;
#212 = CC_DESIGN_PERSON_AND_ORGANIZATION_ASSIGNMENT ( #126, #41, ( #131 ) ) ;
#213 = PERSON_AND_ORGANIZATION ( #179, #125 ) ;
#214 = COORDINATED_UNIVERSAL_TIME_OFFSET ( 1, 0, .AHEAD. ) ;
#215 = SHAPE_DEFINITION_REPRESENTATION ( #198, #75 ) ;
#216 = APPROVAL_STATUS ( 'not_yet_approved' ) ;
#217 = APPROVAL ( #216, 'UNSPECIFIED' ) ;
#218 = CARTESIAN_POINT ( 'NONE',  ( 1.745740669421566993E-14, 0.3249999999999991229, 5.000000000000000888 ) ) ;
#219 = AXIS2_PLACEMENT_3D ( 'NONE', #4, #57, #144 ) ;
#220 = FACE_OUTER_BOUND ( 'NONE', #136, .T. ) ;
#221 = EDGE_LOOP ( 'NONE', ( #66 ) ) ;
#222 = VERTEX_POINT ( 'NONE', #115 ) ;
#223 = CARTESIAN_POINT ( 'NONE',  ( 1.745740669421566993E-14, -6.123233995736767268E-16, 5.000000000000000888 ) ) ;
ENDSEC;
END-ISO-10303-21;
