ISO-10303-21;
HEADER;
FILE_DESCRIPTION (( 'STEP AP203' ),
    '1' );
FILE_NAME ('55316.step',
    '2021-10-08T05:14:29',
    ( '' ),
    ( '' ),
    'SwSTEP 2.0',
    'SolidWorks 2019',
    '' );
FILE_SCHEMA (( 'CONFIG_CONTROL_DESIGN' ));
ENDSEC;

DATA;
#1 = PERSON_AND_ORGANIZATION_ROLE ( 'design_supplier' ) ;
#2 = CIRCLE ( 'NONE', #122, 0.3199999999999995071 ) ;
#3 = DATE_TIME_ROLE ( 'creation_date' ) ;
#4 = APPROVAL_STATUS ( 'not_yet_approved' ) ;
#5 = FACE_OUTER_BOUND ( 'NONE', #9, .T. ) ;
#6 = MANIFOLD_SOLID_BREP ( 'Corps-Déplacer/Copier1[2]', #100 ) ;
#7 = EDGE_LOOP ( 'NONE', ( #93 ) ) ;
#8 = CIRCLE ( 'NONE', #119, 0.3199999999999988964 ) ;
#9 = EDGE_LOOP ( 'NONE', ( #91 ) ) ;
#10 = DIRECTION ( 'NONE',  ( -3.491481338843133355E-15, 1.224646799147353207E-16, -1.000000000000000000 ) ) ;
#11 = CARTESIAN_POINT ( 'NONE',  ( 0.0000000000000000000, 0.0000000000000000000, 0.0000000000000000000 ) ) ;
#12 = ADVANCED_FACE ( 'NONE', ( #5 ), #134, .F. ) ;
#13 = CARTESIAN_POINT ( 'NONE',  ( 1.047444401652940007E-13, -3.673940397442059178E-15, 30.00000000000000000 ) ) ;
#14 = DIRECTION ( 'NONE',  ( 3.009265538105066530E-31, 1.000000000000000000, 8.470329472543032973E-17 ) ) ;
#15 =( GEOMETRIC_REPRESENTATION_CONTEXT ( 3 ) GLOBAL_UNCERTAINTY_ASSIGNED_CONTEXT ( ( #33 ) ) GLOBAL_UNIT_ASSIGNED_CONTEXT ( ( #188, #31, #156 ) ) REPRESENTATION_CONTEXT ( 'NONE', 'WORKASPACE' ) );
#16 = CARTESIAN_POINT ( 'NONE',  ( 1.745740669421566678E-14, 0.3199999999999988964, 5.000000000000000000 ) ) ;
#17 = CARTESIAN_POINT ( 'NONE',  ( 6.713259643457524313E-16, 0.3199999999999988964, 0.1922753980888207703 ) ) ;
#18 = APPROVAL_PERSON_ORGANIZATION ( #223, #128, #207 ) ;
#19 = APPROVAL_STATUS ( 'not_yet_approved' ) ;
#20 = PRODUCT_DEFINITION_SHAPE ( 'NONE', 'NONE',  #169 ) ;
#21 = AXIS2_PLACEMENT_3D ( 'NONE', #83, #133, #221 ) ;
#22 = FACE_OUTER_BOUND ( 'NONE', #179, .T. ) ;
#23 = DIRECTION ( 'NONE',  ( 4.275831445896958607E-31, 1.000000000000000000, 1.224646799147353207E-16 ) ) ;
#24 = DIRECTION ( 'NONE',  ( -3.491481338843133355E-15, 1.224646799147353207E-16, -1.000000000000000000 ) ) ;
#25 = DIRECTION ( 'NONE',  ( -3.009265538105066530E-31, -1.000000000000000000, -8.470329472543032973E-17 ) ) ;
#26 = DIRECTION ( 'NONE',  ( 3.491481338843133355E-15, -1.224646799147353207E-16, 1.000000000000000000 ) ) ;
#27 = APPLICATION_CONTEXT ( 'configuration controlled 3d designs of mechanical parts and assemblies' ) ;
#28 = CC_DESIGN_PERSON_AND_ORGANIZATION_ASSIGNMENT ( #105, #109, ( #198 ) ) ;
#29 = COORDINATED_UNIVERSAL_TIME_OFFSET ( 1, 0, .AHEAD. ) ;
#30 = DATE_AND_TIME ( #176, #220 ) ;
#31 =( NAMED_UNIT ( * ) PLANE_ANGLE_UNIT ( ) SI_UNIT ( $, .RADIAN. ) );
#32 = PRODUCT_DEFINITION_FORMATION_WITH_SPECIFIED_SOURCE ( 'ANY', '', #198, .NOT_KNOWN. ) ;
#33 = UNCERTAINTY_MEASURE_WITH_UNIT (LENGTH_MEASURE( 1.000000000000000082E-05 ), #188, 'distance_accuracy_value', 'NONE');
#34 = EDGE_LOOP ( 'NONE', ( #159 ) ) ;
#35 = ORIENTED_EDGE ( 'NONE', *, *, #68, .T. ) ;
#36 = ORIENTED_EDGE ( 'NONE', *, *, #154, .T. ) ;
#37 = AXIS2_PLACEMENT_3D ( 'NONE', #82, #80, #150 ) ;
#38 = CARTESIAN_POINT ( 'NONE',  ( 1.980287612925910770E-14, -6.945913929370789925E-16, 5.671769145362405951 ) ) ;
#39 = LOCAL_TIME ( 7, 14, 29.00000000000000000, #29 ) ;
#40 = FACE_OUTER_BOUND ( 'NONE', #77, .T. ) ;
#41 = CARTESIAN_POINT ( 'NONE',  ( 1.980287612925910770E-14, -6.945913929370789925E-16, 5.671769145362405951 ) ) ;
#42 = CARTESIAN_POINT ( 'NONE',  ( 1.043952920314096936E-13, -3.661693929450586610E-15, 29.90000000000000213 ) ) ;
#43 = CONICAL_SURFACE ( 'NONE', #192, 0.3999999999999989675, 0.7853981633974694843 ) ;
#44 = APPROVAL_PERSON_ORGANIZATION ( #74, #97, #209 ) ;
#45 = DIRECTION ( 'NONE',  ( -3.491481338843133355E-15, 1.224646799147353207E-16, -1.000000000000000000 ) ) ;
#46 = VERTEX_POINT ( 'NONE', #16 ) ;
#47 = VERTEX_POINT ( 'NONE', #202 ) ;
#48 = CONICAL_SURFACE ( 'NONE', #145, 0.3199999999999988964, 1.029744258676649649 ) ;
#49 = APPROVAL_PERSON_ORGANIZATION ( #73, #61, #189 ) ;
#50 = COORDINATED_UNIVERSAL_TIME_OFFSET ( 1, 0, .AHEAD. ) ;
#51 = ADVANCED_FACE ( 'NONE', ( #96 ), #48, .T. ) ;
#52 = PERSON_AND_ORGANIZATION ( #101, #88 ) ;
#53 = PERSON_AND_ORGANIZATION ( #101, #88 ) ;
#54 = CIRCLE ( 'NONE', #142, 0.3999999999999989675 ) ;
#55 = DATE_TIME_ROLE ( 'classification_date' ) ;
#56 = CC_DESIGN_APPROVAL ( #97, ( #137 ) ) ;
#57 = EDGE_LOOP ( 'NONE', ( #95 ) ) ;
#58 = ADVANCED_FACE ( 'NONE', ( #78, #197 ), #118, .T. ) ;
#59 = ORIENTED_EDGE ( 'NONE', *, *, #208, .T. ) ;
#60 = ADVANCED_BREP_SHAPE_REPRESENTATION ( '55316', ( #152, #6, #108 ), #15 ) ;
#61 = APPROVAL ( #140, 'UNSPECIFIED' ) ;
#62 = EDGE_LOOP ( 'NONE', ( #36 ) ) ;
#63 = FACE_BOUND ( 'NONE', #34, .T. ) ;
#64 = FACE_OUTER_BOUND ( 'NONE', #7, .T. ) ;
#65 = APPLICATION_CONTEXT ( 'configuration controlled 3d designs of mechanical parts and assemblies' ) ;
#66 = FACE_OUTER_BOUND ( 'NONE', #92, .T. ) ;
#67 = DIRECTION ( 'NONE',  ( 0.0000000000000000000, 1.000000000000000000, 0.0000000000000000000 ) ) ;
#68 = EDGE_CURVE ( 'NONE', #84, #84, #205, .T. ) ;
#69 = PERSON_AND_ORGANIZATION ( #101, #88 ) ;
#70 = APPLICATION_PROTOCOL_DEFINITION ( 'international standard', 'config_control_design', 1994, #65 ) ;
#71 = DATE_AND_TIME ( #157, #126 ) ;
#72 = SECURITY_CLASSIFICATION_LEVEL ( 'unclassified' ) ;
#73 = PERSON_AND_ORGANIZATION ( #101, #88 ) ;
#74 = PERSON_AND_ORGANIZATION ( #101, #88 ) ;
#75 = EDGE_LOOP ( 'NONE', ( #193 ) ) ;
#76 = EDGE_LOOP ( 'NONE', ( #210 ) ) ;
#77 = EDGE_LOOP ( 'NONE', ( #195 ) ) ;
#78 = FACE_OUTER_BOUND ( 'NONE', #57, .T. ) ;
#79 = ADVANCED_FACE ( 'NONE', ( #66, #148 ), #43, .T. ) ;
#80 = DIRECTION ( 'NONE',  ( 3.491481338843133355E-15, -1.224646799147353207E-16, 1.000000000000000000 ) ) ;
#81 = CLOSED_SHELL ( 'NONE', ( #178, #87, #194, #79, #12 ) ) ;
#82 = CARTESIAN_POINT ( 'NONE',  ( 1.745740669421566678E-14, 2.399615652258959241E-33, 5.000000000000000000 ) ) ;
#83 = CARTESIAN_POINT ( 'NONE',  ( 1.745740669421566678E-14, 2.399615652258959241E-33, 5.000000000000000000 ) ) ;
#84 = VERTEX_POINT ( 'NONE', #153 ) ;
#85 = CC_DESIGN_SECURITY_CLASSIFICATION ( #137, ( #32 ) ) ;
#86 = CARTESIAN_POINT ( 'NONE',  ( 0.0000000000000000000, 0.0000000000000000000, 0.0000000000000000000 ) ) ;
#87 = ADVANCED_FACE ( 'NONE', ( #63, #22 ), #129, .T. ) ;
#88 = ORGANIZATION ( 'UNSPECIFIED', 'UNSPECIFIED', '' ) ;
#89 = COORDINATED_UNIVERSAL_TIME_OFFSET ( 1, 0, .AHEAD. ) ;
#90 = APPROVAL_DATE_TIME ( #30, #61 ) ;
#91 = ORIENTED_EDGE ( 'NONE', *, *, #154, .F. ) ;
#92 = EDGE_LOOP ( 'NONE', ( #160 ) ) ;
#93 = ORIENTED_EDGE ( 'NONE', *, *, #68, .F. ) ;
#94 = LOCAL_TIME ( 7, 14, 29.00000000000000000, #144 ) ;
#95 = ORIENTED_EDGE ( 'NONE', *, *, #218, .F. ) ;
#96 = FACE_OUTER_BOUND ( 'NONE', #75, .T. ) ;
#97 = APPROVAL ( #4, 'UNSPECIFIED' ) ;
#98 = DIRECTION ( 'NONE',  ( -3.491481338843133355E-15, 1.224646799147353207E-16, -1.000000000000000000 ) ) ;
#99 = CARTESIAN_POINT ( 'NONE',  ( 1.745740669421566678E-14, -6.123233995736766282E-16, 5.000000000000000000 ) ) ;
#100 = CLOSED_SHELL ( 'NONE', ( #51, #58, #117 ) ) ;
#101 = PERSON ( 'UNSPECIFIED', 'UNSPECIFIED', 'UNSPECIFIED', ('UNSPECIFIED'), ('UNSPECIFIED'), ('UNSPECIFIED') ) ;
#102 = FACE_OUTER_BOUND ( 'NONE', #213, .T. ) ;
#103 = CC_DESIGN_DATE_AND_TIME_ASSIGNMENT ( #71, #3, ( #169 ) ) ;
#104 = FACE_OUTER_BOUND ( 'NONE', #76, .T. ) ;
#105 = PERSON_AND_ORGANIZATION ( #101, #88 ) ;
#106 = CALENDAR_DATE ( 2021, 8, 10 ) ;
#107 = AXIS2_PLACEMENT_3D ( 'NONE', #99, #199, #67 ) ;
#108 = AXIS2_PLACEMENT_3D ( 'NONE', #86, #155, #204 ) ;
#109 = PERSON_AND_ORGANIZATION_ROLE ( 'design_owner' ) ;
#110 = ORIENTED_EDGE ( 'NONE', *, *, #187, .T. ) ;
#111 = AXIS2_PLACEMENT_3D ( 'NONE', #38, #184, #135 ) ;
#112 = LOCAL_TIME ( 7, 14, 29.00000000000000000, #190 ) ;
#113 = CARTESIAN_POINT ( 'NONE',  ( 1.745740669421566678E-14, 0.3199999999999988964, 5.000000000000000000 ) ) ;
#114 = EDGE_CURVE ( 'NONE', #196, #196, #211, .T. ) ;
#115 = PLANE ( 'NONE',  #37 ) ;
#116 = PLANE ( 'NONE',  #21 ) ;
#117 = ADVANCED_FACE ( 'NONE', ( #104 ), #116, .T. ) ;
#118 = CYLINDRICAL_SURFACE ( 'NONE', #177, 0.3199999999999992295 ) ;
#119 = AXIS2_PLACEMENT_3D ( 'NONE', #132, #45, #14 ) ;
#120 = DIRECTION ( 'NONE',  ( 3.491481338843133355E-15, -1.224646799147353207E-16, 1.000000000000000000 ) ) ;
#121 = MECHANICAL_CONTEXT ( 'NONE', #27, 'mechanical' ) ;
#122 = AXIS2_PLACEMENT_3D ( 'NONE', #136, #165, #217 ) ;
#123 = PERSON_AND_ORGANIZATION_ROLE ( 'classification_officer' ) ;
#124 = CC_DESIGN_PERSON_AND_ORGANIZATION_ASSIGNMENT ( #69, #1, ( #32 ) ) ;
#125 = VERTEX_POINT ( 'NONE', #191 ) ;
#126 = LOCAL_TIME ( 7, 14, 29.00000000000000000, #89 ) ;
#127 = DATE_AND_TIME ( #138, #112 ) ;
#128 = APPROVAL ( #19, 'UNSPECIFIED' ) ;
#129 = CONICAL_SURFACE ( 'NONE', #141, 0.4999999999999970024, 0.2617993877991428575 ) ;
#130 = AXIS2_PLACEMENT_3D ( 'NONE', #42, #186, #167 ) ;
#131 = CC_DESIGN_PERSON_AND_ORGANIZATION_ASSIGNMENT ( #53, #171, ( #169 ) ) ;
#132 = CARTESIAN_POINT ( 'NONE',  ( 6.713259643457523327E-16, -2.354694508242574354E-17, 0.1922753980888207426 ) ) ;
#133 = DIRECTION ( 'NONE',  ( 3.491481338843133355E-15, -1.224646799147353207E-16, 1.000000000000000000 ) ) ;
#134 = PLANE ( 'NONE',  #146 ) ;
#135 = DIRECTION ( 'NONE',  ( 0.0000000000000000000, 1.000000000000000000, 0.0000000000000000000 ) ) ;
#136 = CARTESIAN_POINT ( 'NONE',  ( 1.745740669421566678E-14, -6.123233995736766282E-16, 5.000000000000000000 ) ) ;
#137 = SECURITY_CLASSIFICATION ( '', '', #72 ) ;
#138 = CALENDAR_DATE ( 2021, 8, 10 ) ;
#139 = CC_DESIGN_DATE_AND_TIME_ASSIGNMENT ( #127, #55, ( #137 ) ) ;
#140 = APPROVAL_STATUS ( 'not_yet_approved' ) ;
#141 = AXIS2_PLACEMENT_3D ( 'NONE', #41, #26, #151 ) ;
#142 = AXIS2_PLACEMENT_3D ( 'NONE', #219, #215, #163 ) ;
#143 = VERTEX_POINT ( 'NONE', #17 ) ;
#144 = COORDINATED_UNIVERSAL_TIME_OFFSET ( 1, 0, .AHEAD. ) ;
#145 = AXIS2_PLACEMENT_3D ( 'NONE', #168, #120, #25 ) ;
#146 = AXIS2_PLACEMENT_3D ( 'NONE', #164, #24, #23 ) ;
#147 = EDGE_LOOP ( 'NONE', ( #59 ) ) ;
#148 = FACE_BOUND ( 'NONE', #62, .T. ) ;
#149 = CYLINDRICAL_SURFACE ( 'NONE', #200, 0.4999999999999980571 ) ;
#150 = DIRECTION ( 'NONE',  ( -4.275831445896958607E-31, -1.000000000000000000, -1.224646799147353207E-16 ) ) ;
#151 = DIRECTION ( 'NONE',  ( 0.0000000000000000000, -1.000000000000000000, 0.0000000000000000000 ) ) ;
#152 = MANIFOLD_SOLID_BREP ( 'Corps-Déplacer/Copier1[1]', #81 ) ;
#153 = CARTESIAN_POINT ( 'NONE',  ( 1.980287612925910770E-14, 0.4999999999999963363, 5.671769145362405951 ) ) ;
#154 = EDGE_CURVE ( 'NONE', #47, #47, #54, .T. ) ;
#155 = DIRECTION ( 'NONE',  ( 0.0000000000000000000, 0.0000000000000000000, 1.000000000000000000 ) ) ;
#156 =( NAMED_UNIT ( * ) SI_UNIT ( $, .STERADIAN. ) SOLID_ANGLE_UNIT ( ) );
#157 = CALENDAR_DATE ( 2021, 8, 10 ) ;
#158 = PERSON_AND_ORGANIZATION ( #101, #88 ) ;
#159 = ORIENTED_EDGE ( 'NONE', *, *, #114, .F. ) ;
#160 = ORIENTED_EDGE ( 'NONE', *, *, #187, .F. ) ;
#161 = CC_DESIGN_PERSON_AND_ORGANIZATION_ASSIGNMENT ( #158, #173, ( #32 ) ) ;
#162 = CC_DESIGN_APPROVAL ( #128, ( #169 ) ) ;
#163 = DIRECTION ( 'NONE',  ( 0.0000000000000000000, 1.000000000000000000, 0.0000000000000000000 ) ) ;
#164 = CARTESIAN_POINT ( 'NONE',  ( 1.047444401652940007E-13, 2.999519565323652267E-33, 30.00000000000000000 ) ) ;
#165 = DIRECTION ( 'NONE',  ( -3.491481338843133355E-15, 1.224646799147353207E-16, -1.000000000000000000 ) ) ;
#166 = CIRCLE ( 'NONE', #130, 0.4999999999999991673 ) ;
#167 = DIRECTION ( 'NONE',  ( 0.0000000000000000000, 1.000000000000000000, 0.0000000000000000000 ) ) ;
#168 = CARTESIAN_POINT ( 'NONE',  ( 6.713259643457523327E-16, -2.354694508242574354E-17, 0.1922753980888207426 ) ) ;
#169 = PRODUCT_DEFINITION ( 'UNKNOWN', '', #32, #174 ) ;
#170 = DATE_AND_TIME ( #185, #94 ) ;
#171 = PERSON_AND_ORGANIZATION_ROLE ( 'creator' ) ;
#172 = DATE_AND_TIME ( #106, #39 ) ;
#173 = PERSON_AND_ORGANIZATION_ROLE ( 'creator' ) ;
#174 = DESIGN_CONTEXT ( 'detailed design', #65, 'design' ) ;
#175 = APPLICATION_PROTOCOL_DEFINITION ( 'international standard', 'config_control_design', 1994, #27 ) ;
#176 = CALENDAR_DATE ( 2021, 8, 10 ) ;
#177 = AXIS2_PLACEMENT_3D ( 'NONE', #11, #98, #180 ) ;
#178 = ADVANCED_FACE ( 'NONE', ( #40 ), #115, .F. ) ;
#179 = EDGE_LOOP ( 'NONE', ( #35 ) ) ;
#180 = DIRECTION ( 'NONE',  ( 4.275831445896958607E-31, 1.000000000000000000, 1.224646799147353207E-16 ) ) ;
#181 = DIRECTION ( 'NONE',  ( 0.0000000000000000000, 1.000000000000000000, 0.0000000000000000000 ) ) ;
#182 = PRODUCT_RELATED_PRODUCT_CATEGORY ( 'detail', '', ( #198 ) ) ;
#183 = DIRECTION ( 'NONE',  ( 4.275831445896958607E-31, 1.000000000000000000, 1.224646799147353207E-16 ) ) ;
#184 = DIRECTION ( 'NONE',  ( -3.491481338843133355E-15, 1.224646799147353207E-16, -1.000000000000000000 ) ) ;
#185 = CALENDAR_DATE ( 2021, 8, 10 ) ;
#186 = DIRECTION ( 'NONE',  ( -3.491481338843133355E-15, 1.224646799147353207E-16, -1.000000000000000000 ) ) ;
#187 = EDGE_CURVE ( 'NONE', #125, #125, #166, .T. ) ;
#188 =( LENGTH_UNIT ( ) NAMED_UNIT ( * ) SI_UNIT ( .MILLI., .METRE. ) );
#189 = APPROVAL_ROLE ( '' ) ;
#190 = COORDINATED_UNIVERSAL_TIME_OFFSET ( 1, 0, .AHEAD. ) ;
#191 = CARTESIAN_POINT ( 'NONE',  ( 1.043952920314096936E-13, 0.4999999999999954481, 29.90000000000000213 ) ) ;
#192 = AXIS2_PLACEMENT_3D ( 'NONE', #13, #10, #181 ) ;
#193 = ORIENTED_EDGE ( 'NONE', *, *, #218, .T. ) ;
#194 = ADVANCED_FACE ( 'NONE', ( #64, #102 ), #149, .T. ) ;
#195 = ORIENTED_EDGE ( 'NONE', *, *, #114, .T. ) ;
#196 = VERTEX_POINT ( 'NONE', #113 ) ;
#197 = FACE_OUTER_BOUND ( 'NONE', #147, .T. ) ;
#198 = PRODUCT ( '55316', '55316', '', ( #121 ) ) ;
#199 = DIRECTION ( 'NONE',  ( -3.491481338843133355E-15, 1.224646799147353207E-16, -1.000000000000000000 ) ) ;
#200 = AXIS2_PLACEMENT_3D ( 'NONE', #201, #216, #183 ) ;
#201 = CARTESIAN_POINT ( 'NONE',  ( 0.0000000000000000000, 0.0000000000000000000, 0.0000000000000000000 ) ) ;
#202 = CARTESIAN_POINT ( 'NONE',  ( 1.047444401652940007E-13, 0.3999999999999953038, 30.00000000000000000 ) ) ;
#203 = SHAPE_DEFINITION_REPRESENTATION ( #20, #60 ) ;
#204 = DIRECTION ( 'NONE',  ( 1.000000000000000000, 0.0000000000000000000, 0.0000000000000000000 ) ) ;
#205 = CIRCLE ( 'NONE', #111, 0.4999999999999970024 ) ;
#206 = APPROVAL_DATE_TIME ( #172, #128 ) ;
#207 = APPROVAL_ROLE ( '' ) ;
#208 = EDGE_CURVE ( 'NONE', #46, #46, #2, .T. ) ;
#209 = APPROVAL_ROLE ( '' ) ;
#210 = ORIENTED_EDGE ( 'NONE', *, *, #208, .F. ) ;
#211 = CIRCLE ( 'NONE', #107, 0.3199999999999995071 ) ;
#212 = CC_DESIGN_APPROVAL ( #61, ( #32 ) ) ;
#213 = EDGE_LOOP ( 'NONE', ( #110 ) ) ;
#214 = CC_DESIGN_PERSON_AND_ORGANIZATION_ASSIGNMENT ( #52, #123, ( #137 ) ) ;
#215 = DIRECTION ( 'NONE',  ( -3.491481338843133355E-15, 1.224646799147353207E-16, -1.000000000000000000 ) ) ;
#216 = DIRECTION ( 'NONE',  ( -3.491481338843133355E-15, 1.224646799147353207E-16, -1.000000000000000000 ) ) ;
#217 = DIRECTION ( 'NONE',  ( 0.0000000000000000000, 1.000000000000000000, 0.0000000000000000000 ) ) ;
#218 = EDGE_CURVE ( 'NONE', #143, #143, #8, .T. ) ;
#219 = CARTESIAN_POINT ( 'NONE',  ( 1.047444401652940007E-13, -3.673940397442059178E-15, 30.00000000000000000 ) ) ;
#220 = LOCAL_TIME ( 7, 14, 29.00000000000000000, #50 ) ;
#221 = DIRECTION ( 'NONE',  ( -4.275831445896958607E-31, -1.000000000000000000, -1.224646799147353207E-16 ) ) ;
#222 = APPROVAL_DATE_TIME ( #170, #97 ) ;
#223 = PERSON_AND_ORGANIZATION ( #101, #88 ) ;
ENDSEC;
END-ISO-10303-21;
