ISO-10303-21;
HEADER;
FILE_DESCRIPTION (( 'STEP AP203' ),
    '1' );
FILE_NAME ('55315.step',
    '2021-10-08T05:14:29',
    ( '' ),
    ( '' ),
    'SwSTEP 2.0',
    'SolidWorks 2019',
    '' );
FILE_SCHEMA (( 'CONFIG_CONTROL_DESIGN' ));
ENDSEC;

DATA;
#1 = FACE_OUTER_BOUND ( 'NONE', #44, .T. ) ;
#2 = APPROVAL ( #36, 'UNSPECIFIED' ) ;
#3 = SECURITY_CLASSIFICATION ( '', '', #157 ) ;
#4 = DIRECTION ( 'NONE',  ( 0.0000000000000000000, -1.000000000000000000, 0.0000000000000000000 ) ) ;
#5 = DIRECTION ( 'NONE',  ( 0.0000000000000000000, 1.000000000000000000, 0.0000000000000000000 ) ) ;
#6 = VERTEX_POINT ( 'NONE', #9 ) ;
#7 = APPROVAL_PERSON_ORGANIZATION ( #102, #106, #12 ) ;
#8 = PERSON_AND_ORGANIZATION ( #135, #193 ) ;
#9 = CARTESIAN_POINT ( 'NONE',  ( 1.745740669421566678E-14, 0.3149999999999988920, 5.000000000000000000 ) ) ;
#10 = DATE_AND_TIME ( #119, #28 ) ;
#11 = LOCAL_TIME ( 7, 14, 29.00000000000000000, #200 ) ;
#12 = APPROVAL_ROLE ( '' ) ;
#13 = EDGE_LOOP ( 'NONE', ( #141 ) ) ;
#14 = CIRCLE ( 'NONE', #49, 0.3149999999999989475 ) ;
#15 = DIRECTION ( 'NONE',  ( -3.491481338843133355E-15, 1.224646799147353207E-16, -1.000000000000000000 ) ) ;
#16 = APPLICATION_CONTEXT ( 'configuration controlled 3d designs of mechanical parts and assemblies' ) ;
#17 = SHAPE_DEFINITION_REPRESENTATION ( #190, #117 ) ;
#18 = DIRECTION ( 'NONE',  ( -3.491481338843133355E-15, 1.224646799147353207E-16, -1.000000000000000000 ) ) ;
#19 = CC_DESIGN_PERSON_AND_ORGANIZATION_ASSIGNMENT ( #8, #37, ( #146 ) ) ;
#20 = DIRECTION ( 'NONE',  ( -3.491481338843133355E-15, 1.224646799147353207E-16, -1.000000000000000000 ) ) ;
#21 = CARTESIAN_POINT ( 'NONE',  ( 1.745740669421566678E-14, 2.362121657692412869E-33, 5.000000000000000000 ) ) ;
#22 = PLANE ( 'NONE',  #77 ) ;
#23 = CALENDAR_DATE ( 2021, 8, 10 ) ;
#24 = AXIS2_PLACEMENT_3D ( 'NONE', #209, #20, #131 ) ;
#25 = COORDINATED_UNIVERSAL_TIME_OFFSET ( 1, 0, .AHEAD. ) ;
#26 = PERSON_AND_ORGANIZATION ( #135, #193 ) ;
#27 = CIRCLE ( 'NONE', #162, 0.3999999999999989675 ) ;
#28 = LOCAL_TIME ( 7, 14, 29.00000000000000000, #153 ) ;
#29 = EDGE_LOOP ( 'NONE', ( #172 ) ) ;
#30 = CARTESIAN_POINT ( 'NONE',  ( 1.043952920314096936E-13, -3.661693929450586610E-15, 29.90000000000000213 ) ) ;
#31 = CC_DESIGN_APPROVAL ( #106, ( #3 ) ) ;
#32 = FACE_OUTER_BOUND ( 'NONE', #206, .T. ) ;
#33 = DIRECTION ( 'NONE',  ( 0.0000000000000000000, 1.000000000000000000, 0.0000000000000000000 ) ) ;
#34 = DIRECTION ( 'NONE',  ( -3.491481338843133355E-15, 1.224646799147353207E-16, -1.000000000000000000 ) ) ;
#35 = DIRECTION ( 'NONE',  ( -4.275831445896958607E-31, -1.000000000000000000, -1.224646799147353207E-16 ) ) ;
#36 = APPROVAL_STATUS ( 'not_yet_approved' ) ;
#37 = PERSON_AND_ORGANIZATION_ROLE ( 'creator' ) ;
#38 = AXIS2_PLACEMENT_3D ( 'NONE', #30, #34, #5 ) ;
#39 = APPLICATION_CONTEXT ( 'configuration controlled 3d designs of mechanical parts and assemblies' ) ;
#40 = APPLICATION_PROTOCOL_DEFINITION ( 'international standard', 'config_control_design', 1994, #39 ) ;
#41 = APPROVAL_DATE_TIME ( #173, #66 ) ;
#42 = ORIENTED_EDGE ( 'NONE', *, *, #97, .F. ) ;
#43 = APPLICATION_PROTOCOL_DEFINITION ( 'international standard', 'config_control_design', 1994, #16 ) ;
#44 = EDGE_LOOP ( 'NONE', ( #78 ) ) ;
#45 = ORIENTED_EDGE ( 'NONE', *, *, #79, .T. ) ;
#46 = DIRECTION ( 'NONE',  ( 0.0000000000000000000, 1.000000000000000000, 0.0000000000000000000 ) ) ;
#47 = ADVANCED_FACE ( 'NONE', ( #191 ), #148, .T. ) ;
#48 = CARTESIAN_POINT ( 'NONE',  ( 1.745740669421566678E-14, -6.123233995736766282E-16, 5.000000000000000000 ) ) ;
#49 = AXIS2_PLACEMENT_3D ( 'NONE', #80, #129, #163 ) ;
#50 = FACE_OUTER_BOUND ( 'NONE', #29, .T. ) ;
#51 = AXIS2_PLACEMENT_3D ( 'NONE', #143, #82, #4 ) ;
#52 = DIRECTION ( 'NONE',  ( 4.275831445896958607E-31, 1.000000000000000000, 1.224646799147353207E-16 ) ) ;
#53 = CARTESIAN_POINT ( 'NONE',  ( 1.745740669421566678E-14, -6.123233995736766282E-16, 5.000000000000000000 ) ) ;
#54 = APPROVAL_ROLE ( '' ) ;
#55 = DIRECTION ( 'NONE',  ( 0.0000000000000000000, 0.0000000000000000000, 1.000000000000000000 ) ) ;
#56 = EDGE_CURVE ( 'NONE', #221, #221, #197, .T. ) ;
#57 = PERSON_AND_ORGANIZATION_ROLE ( 'design_owner' ) ;
#58 = ORIENTED_EDGE ( 'NONE', *, *, #124, .F. ) ;
#59 =( GEOMETRIC_REPRESENTATION_CONTEXT ( 3 ) GLOBAL_UNCERTAINTY_ASSIGNED_CONTEXT ( ( #198 ) ) GLOBAL_UNIT_ASSIGNED_CONTEXT ( ( #116, #71, #89 ) ) REPRESENTATION_CONTEXT ( 'NONE', 'WORKASPACE' ) );
#60 = EDGE_LOOP ( 'NONE', ( #45 ) ) ;
#61 = DATE_AND_TIME ( #154, #11 ) ;
#62 = AXIS2_PLACEMENT_3D ( 'NONE', #156, #213, #167 ) ;
#63 = DATE_TIME_ROLE ( 'classification_date' ) ;
#64 = DATE_AND_TIME ( #125, #111 ) ;
#65 = VERTEX_POINT ( 'NONE', #194 ) ;
#66 = APPROVAL ( #94, 'UNSPECIFIED' ) ;
#67 = FACE_BOUND ( 'NONE', #60, .T. ) ;
#68 = DIRECTION ( 'NONE',  ( 4.275831445896958607E-31, 1.000000000000000000, 1.224646799147353207E-16 ) ) ;
#69 = CYLINDRICAL_SURFACE ( 'NONE', #203, 0.3149999999999992251 ) ;
#70 = ADVANCED_FACE ( 'NONE', ( #195, #32 ), #145, .T. ) ;
#71 =( NAMED_UNIT ( * ) PLANE_ANGLE_UNIT ( ) SI_UNIT ( $, .RADIAN. ) );
#72 = CC_DESIGN_DATE_AND_TIME_ASSIGNMENT ( #10, #216, ( #146 ) ) ;
#73 = EDGE_LOOP ( 'NONE', ( #98 ) ) ;
#74 = CARTESIAN_POINT ( 'NONE',  ( 6.608364961528502467E-16, 0.3149999999999989475, 0.1892710949936829978 ) ) ;
#75 = ADVANCED_FACE ( 'NONE', ( #223, #67 ), #114, .T. ) ;
#76 = APPROVAL_DATE_TIME ( #64, #106 ) ;
#77 = AXIS2_PLACEMENT_3D ( 'NONE', #126, #179, #212 ) ;
#78 = ORIENTED_EDGE ( 'NONE', *, *, #79, .F. ) ;
#79 = EDGE_CURVE ( 'NONE', #65, #65, #27, .T. ) ;
#80 = CARTESIAN_POINT ( 'NONE',  ( 6.608364961528501481E-16, -2.317902406551284929E-17, 0.1892710949936829701 ) ) ;
#81 = VERTEX_POINT ( 'NONE', #74 ) ;
#82 = DIRECTION ( 'NONE',  ( 3.491481338843133355E-15, -1.224646799147353207E-16, 1.000000000000000000 ) ) ;
#83 = FACE_OUTER_BOUND ( 'NONE', #121, .T. ) ;
#84 = ADVANCED_FACE ( 'NONE', ( #150 ), #168, .T. ) ;
#85 = CIRCLE ( 'NONE', #182, 0.3149999999999994471 ) ;
#86 = MANIFOLD_SOLID_BREP ( 'Corps-Déplacer/Copier1[2]', #142 ) ;
#87 = CARTESIAN_POINT ( 'NONE',  ( 0.0000000000000000000, 0.0000000000000000000, 0.0000000000000000000 ) ) ;
#88 = AXIS2_PLACEMENT_3D ( 'NONE', #181, #109, #35 ) ;
#89 =( NAMED_UNIT ( * ) SI_UNIT ( $, .STERADIAN. ) SOLID_ANGLE_UNIT ( ) );
#90 = CARTESIAN_POINT ( 'NONE',  ( 1.043952920314096936E-13, 0.4999999999999954481, 29.90000000000000213 ) ) ;
#91 = MANIFOLD_SOLID_BREP ( 'Corps-Déplacer/Copier1[1]', #147 ) ;
#92 = ORIENTED_EDGE ( 'NONE', *, *, #101, .F. ) ;
#93 = AXIS2_PLACEMENT_3D ( 'NONE', #48, #196, #46 ) ;
#94 = APPROVAL_STATUS ( 'not_yet_approved' ) ;
#95 = ORIENTED_EDGE ( 'NONE', *, *, #124, .T. ) ;
#96 = COORDINATED_UNIVERSAL_TIME_OFFSET ( 1, 0, .AHEAD. ) ;
#97 = EDGE_CURVE ( 'NONE', #81, #81, #14, .T. ) ;
#98 = ORIENTED_EDGE ( 'NONE', *, *, #97, .T. ) ;
#99 = LOCAL_TIME ( 7, 14, 29.00000000000000000, #96 ) ;
#100 = EDGE_LOOP ( 'NONE', ( #123 ) ) ;
#101 = EDGE_CURVE ( 'NONE', #217, #217, #185, .T. ) ;
#102 = PERSON_AND_ORGANIZATION ( #135, #193 ) ;
#103 = CARTESIAN_POINT ( 'NONE',  ( 1.745740669421566678E-14, 0.3149999999999988920, 5.000000000000000000 ) ) ;
#104 = FACE_OUTER_BOUND ( 'NONE', #100, .T. ) ;
#105 = AXIS2_PLACEMENT_3D ( 'NONE', #87, #15, #68 ) ;
#106 = APPROVAL ( #144, 'UNSPECIFIED' ) ;
#107 = DIRECTION ( 'NONE',  ( 3.491481338843133355E-15, -1.224646799147353207E-16, 1.000000000000000000 ) ) ;
#108 = ADVANCED_FACE ( 'NONE', ( #1 ), #22, .F. ) ;
#109 = DIRECTION ( 'NONE',  ( 3.491481338843133355E-15, -1.224646799147353207E-16, 1.000000000000000000 ) ) ;
#110 = DESIGN_CONTEXT ( 'detailed design', #16, 'design' ) ;
#111 = LOCAL_TIME ( 7, 14, 29.00000000000000000, #139 ) ;
#112 = PLANE ( 'NONE',  #222 ) ;
#113 = DATE_AND_TIME ( #201, #137 ) ;
#114 = CONICAL_SURFACE ( 'NONE', #24, 0.3999999999999989675, 0.7853981633974694843 ) ;
#115 = PERSON_AND_ORGANIZATION ( #135, #193 ) ;
#116 =( LENGTH_UNIT ( ) NAMED_UNIT ( * ) SI_UNIT ( .MILLI., .METRE. ) );
#117 = ADVANCED_BREP_SHAPE_REPRESENTATION ( '55315', ( #91, #86, #175 ), #59 ) ;
#118 = CC_DESIGN_APPROVAL ( #2, ( #140 ) ) ;
#119 = CALENDAR_DATE ( 2021, 8, 10 ) ;
#120 = PERSON_AND_ORGANIZATION ( #135, #193 ) ;
#121 = EDGE_LOOP ( 'NONE', ( #42 ) ) ;
#122 = CC_DESIGN_APPROVAL ( #66, ( #146 ) ) ;
#123 = ORIENTED_EDGE ( 'NONE', *, *, #101, .T. ) ;
#124 = EDGE_CURVE ( 'NONE', #202, #202, #210, .T. ) ;
#125 = CALENDAR_DATE ( 2021, 8, 10 ) ;
#126 = CARTESIAN_POINT ( 'NONE',  ( 1.047444401652940007E-13, 2.999519565323652267E-33, 30.00000000000000000 ) ) ;
#127 = ADVANCED_FACE ( 'NONE', ( #180, #104 ), #130, .T. ) ;
#128 = ADVANCED_FACE ( 'NONE', ( #50 ), #112, .F. ) ;
#129 = DIRECTION ( 'NONE',  ( -3.491481338843133355E-15, 1.224646799147353207E-16, -1.000000000000000000 ) ) ;
#130 = CONICAL_SURFACE ( 'NONE', #51, 0.4999999999999970024, 0.2617993877991426355 ) ;
#131 = DIRECTION ( 'NONE',  ( 0.0000000000000000000, 1.000000000000000000, 0.0000000000000000000 ) ) ;
#132 = APPROVAL_PERSON_ORGANIZATION ( #120, #66, #136 ) ;
#133 = DIRECTION ( 'NONE',  ( 0.0000000000000000000, 1.000000000000000000, 0.0000000000000000000 ) ) ;
#134 = PERSON_AND_ORGANIZATION_ROLE ( 'design_supplier' ) ;
#135 = PERSON ( 'UNSPECIFIED', 'UNSPECIFIED', 'UNSPECIFIED', ('UNSPECIFIED'), ('UNSPECIFIED'), ('UNSPECIFIED') ) ;
#136 = APPROVAL_ROLE ( '' ) ;
#137 = LOCAL_TIME ( 7, 14, 29.00000000000000000, #25 ) ;
#138 = MECHANICAL_CONTEXT ( 'NONE', #39, 'mechanical' ) ;
#139 = COORDINATED_UNIVERSAL_TIME_OFFSET ( 1, 0, .AHEAD. ) ;
#140 = PRODUCT_DEFINITION_FORMATION_WITH_SPECIFIED_SOURCE ( 'ANY', '', #158, .NOT_KNOWN. ) ;
#141 = ORIENTED_EDGE ( 'NONE', *, *, #171, .F. ) ;
#142 = CLOSED_SHELL ( 'NONE', ( #47, #165, #84 ) ) ;
#143 = CARTESIAN_POINT ( 'NONE',  ( 1.986802805801031913E-14, -6.968766149749514119E-16, 5.690429399400251498 ) ) ;
#144 = APPROVAL_STATUS ( 'not_yet_approved' ) ;
#145 = CYLINDRICAL_SURFACE ( 'NONE', #105, 0.4999999999999980571 ) ;
#146 = PRODUCT_DEFINITION ( 'UNKNOWN', '', #140, #110 ) ;
#147 = CLOSED_SHELL ( 'NONE', ( #128, #127, #70, #75, #108 ) ) ;
#148 = CONICAL_SURFACE ( 'NONE', #62, 0.3149999999999989475, 1.029744258676649649 ) ;
#149 = APPROVAL_PERSON_ORGANIZATION ( #26, #2, #54 ) ;
#150 = FACE_OUTER_BOUND ( 'NONE', #13, .T. ) ;
#151 = CARTESIAN_POINT ( 'NONE',  ( 0.0000000000000000000, 0.0000000000000000000, 0.0000000000000000000 ) ) ;
#152 = FACE_OUTER_BOUND ( 'NONE', #204, .T. ) ;
#153 = COORDINATED_UNIVERSAL_TIME_OFFSET ( 1, 0, .AHEAD. ) ;
#154 = CALENDAR_DATE ( 2021, 8, 10 ) ;
#155 = DIRECTION ( 'NONE',  ( 1.000000000000000000, 0.0000000000000000000, 0.0000000000000000000 ) ) ;
#156 = CARTESIAN_POINT ( 'NONE',  ( 6.608364961528501481E-16, -2.317902406551284929E-17, 0.1892710949936829701 ) ) ;
#157 = SECURITY_CLASSIFICATION_LEVEL ( 'unclassified' ) ;
#158 = PRODUCT ( '55315', '55315', '', ( #138 ) ) ;
#159 = ORIENTED_EDGE ( 'NONE', *, *, #56, .F. ) ;
#160 = EDGE_LOOP ( 'NONE', ( #58 ) ) ;
#161 = DIRECTION ( 'NONE',  ( 0.0000000000000000000, 1.000000000000000000, 0.0000000000000000000 ) ) ;
#162 = AXIS2_PLACEMENT_3D ( 'NONE', #166, #178, #33 ) ;
#163 = DIRECTION ( 'NONE',  ( 3.057031657757527605E-31, 1.000000000000000000, 8.604779146710381861E-17 ) ) ;
#164 = CC_DESIGN_PERSON_AND_ORGANIZATION_ASSIGNMENT ( #174, #169, ( #140 ) ) ;
#165 = ADVANCED_FACE ( 'NONE', ( #83, #152 ), #69, .T. ) ;
#166 = CARTESIAN_POINT ( 'NONE',  ( 1.047444401652940007E-13, -3.673940397442059178E-15, 30.00000000000000000 ) ) ;
#167 = DIRECTION ( 'NONE',  ( -3.057031657757527605E-31, -1.000000000000000000, -8.604779146710381861E-17 ) ) ;
#168 = PLANE ( 'NONE',  #88 ) ;
#169 = PERSON_AND_ORGANIZATION_ROLE ( 'creator' ) ;
#170 = CC_DESIGN_SECURITY_CLASSIFICATION ( #3, ( #140 ) ) ;
#171 = EDGE_CURVE ( 'NONE', #6, #6, #85, .T. ) ;
#172 = ORIENTED_EDGE ( 'NONE', *, *, #56, .T. ) ;
#173 = DATE_AND_TIME ( #23, #99 ) ;
#174 = PERSON_AND_ORGANIZATION ( #135, #193 ) ;
#175 = AXIS2_PLACEMENT_3D ( 'NONE', #189, #55, #155 ) ;
#176 = CARTESIAN_POINT ( 'NONE',  ( 1.986802805801031913E-14, -6.968766149749514119E-16, 5.690429399400251498 ) ) ;
#177 = CC_DESIGN_DATE_AND_TIME_ASSIGNMENT ( #61, #63, ( #3 ) ) ;
#178 = DIRECTION ( 'NONE',  ( -3.491481338843133355E-15, 1.224646799147353207E-16, -1.000000000000000000 ) ) ;
#179 = DIRECTION ( 'NONE',  ( -3.491481338843133355E-15, 1.224646799147353207E-16, -1.000000000000000000 ) ) ;
#180 = FACE_BOUND ( 'NONE', #205, .T. ) ;
#181 = CARTESIAN_POINT ( 'NONE',  ( 1.745740669421566678E-14, 2.362121657692412869E-33, 5.000000000000000000 ) ) ;
#182 = AXIS2_PLACEMENT_3D ( 'NONE', #53, #18, #133 ) ;
#183 = CC_DESIGN_PERSON_AND_ORGANIZATION_ASSIGNMENT ( #187, #57, ( #158 ) ) ;
#184 = APPROVAL_DATE_TIME ( #113, #2 ) ;
#185 = CIRCLE ( 'NONE', #214, 0.4999999999999970024 ) ;
#186 = PERSON_AND_ORGANIZATION ( #135, #193 ) ;
#187 = PERSON_AND_ORGANIZATION ( #135, #193 ) ;
#188 = CARTESIAN_POINT ( 'NONE',  ( 1.986802805801031913E-14, 0.4999999999999963363, 5.690429399400251498 ) ) ;
#189 = CARTESIAN_POINT ( 'NONE',  ( 0.0000000000000000000, 0.0000000000000000000, 0.0000000000000000000 ) ) ;
#190 = PRODUCT_DEFINITION_SHAPE ( 'NONE', 'NONE',  #146 ) ;
#191 = FACE_OUTER_BOUND ( 'NONE', #73, .T. ) ;
#192 = CC_DESIGN_PERSON_AND_ORGANIZATION_ASSIGNMENT ( #115, #134, ( #140 ) ) ;
#193 = ORGANIZATION ( 'UNSPECIFIED', 'UNSPECIFIED', '' ) ;
#194 = CARTESIAN_POINT ( 'NONE',  ( 1.047444401652940007E-13, 0.3999999999999953038, 30.00000000000000000 ) ) ;
#195 = FACE_OUTER_BOUND ( 'NONE', #207, .T. ) ;
#196 = DIRECTION ( 'NONE',  ( -3.491481338843133355E-15, 1.224646799147353207E-16, -1.000000000000000000 ) ) ;
#197 = CIRCLE ( 'NONE', #93, 0.3149999999999994471 ) ;
#198 = UNCERTAINTY_MEASURE_WITH_UNIT (LENGTH_MEASURE( 1.000000000000000082E-05 ), #116, 'distance_accuracy_value', 'NONE');
#199 = DIRECTION ( 'NONE',  ( -4.275831445896958607E-31, -1.000000000000000000, -1.224646799147353207E-16 ) ) ;
#200 = COORDINATED_UNIVERSAL_TIME_OFFSET ( 1, 0, .AHEAD. ) ;
#201 = CALENDAR_DATE ( 2021, 8, 10 ) ;
#202 = VERTEX_POINT ( 'NONE', #90 ) ;
#203 = AXIS2_PLACEMENT_3D ( 'NONE', #151, #215, #52 ) ;
#204 = EDGE_LOOP ( 'NONE', ( #219 ) ) ;
#205 = EDGE_LOOP ( 'NONE', ( #159 ) ) ;
#206 = EDGE_LOOP ( 'NONE', ( #95 ) ) ;
#207 = EDGE_LOOP ( 'NONE', ( #92 ) ) ;
#208 = DIRECTION ( 'NONE',  ( -3.491481338843133355E-15, 1.224646799147353207E-16, -1.000000000000000000 ) ) ;
#209 = CARTESIAN_POINT ( 'NONE',  ( 1.047444401652940007E-13, -3.673940397442059178E-15, 30.00000000000000000 ) ) ;
#210 = CIRCLE ( 'NONE', #38, 0.4999999999999991673 ) ;
#211 = PRODUCT_RELATED_PRODUCT_CATEGORY ( 'detail', '', ( #158 ) ) ;
#212 = DIRECTION ( 'NONE',  ( 4.275831445896958607E-31, 1.000000000000000000, 1.224646799147353207E-16 ) ) ;
#213 = DIRECTION ( 'NONE',  ( 3.491481338843133355E-15, -1.224646799147353207E-16, 1.000000000000000000 ) ) ;
#214 = AXIS2_PLACEMENT_3D ( 'NONE', #176, #208, #161 ) ;
#215 = DIRECTION ( 'NONE',  ( -3.491481338843133355E-15, 1.224646799147353207E-16, -1.000000000000000000 ) ) ;
#216 = DATE_TIME_ROLE ( 'creation_date' ) ;
#217 = VERTEX_POINT ( 'NONE', #188 ) ;
#218 = PERSON_AND_ORGANIZATION_ROLE ( 'classification_officer' ) ;
#219 = ORIENTED_EDGE ( 'NONE', *, *, #171, .T. ) ;
#220 = CC_DESIGN_PERSON_AND_ORGANIZATION_ASSIGNMENT ( #186, #218, ( #3 ) ) ;
#221 = VERTEX_POINT ( 'NONE', #103 ) ;
#222 = AXIS2_PLACEMENT_3D ( 'NONE', #21, #107, #199 ) ;
#223 = FACE_OUTER_BOUND ( 'NONE', #160, .T. ) ;
ENDSEC;
END-ISO-10303-21;
