ISO-10303-21;
HEADER;
FILE_DESCRIPTION (( 'STEP AP203' ),
    '1' );
FILE_NAME ('55314.step',
    '2021-10-08T05:14:28',
    ( '' ),
    ( '' ),
    'SwSTEP 2.0',
    'SolidWorks 2019',
    '' );
FILE_SCHEMA (( 'CONFIG_CONTROL_DESIGN' ));
ENDSEC;

DATA;
#1 = DIRECTION ( 'NONE',  ( -3.491481338843133355E-15, 1.224646799147353207E-16, -1.000000000000000000 ) ) ;
#2 = EDGE_CURVE ( 'NONE', #96, #96, #49, .T. ) ;
#3 = CARTESIAN_POINT ( 'NONE',  ( 1.745740669421566678E-14, 0.3099999999999989431, 5.000000000000000000 ) ) ;
#4 = FACE_OUTER_BOUND ( 'NONE', #8, .T. ) ;
#5 = CC_DESIGN_PERSON_AND_ORGANIZATION_ASSIGNMENT ( #108, #123, ( #165 ) ) ;
#6 = APPLICATION_PROTOCOL_DEFINITION ( 'international standard', 'config_control_design', 1994, #61 ) ;
#7 =( NAMED_UNIT ( * ) SI_UNIT ( $, .STERADIAN. ) SOLID_ANGLE_UNIT ( ) );
#8 = EDGE_LOOP ( 'NONE', ( #78 ) ) ;
#9 = VERTEX_POINT ( 'NONE', #172 ) ;
#10 = CARTESIAN_POINT ( 'NONE',  ( 1.745740669421566678E-14, -6.123233995736766282E-16, 5.000000000000000000 ) ) ;
#11 = AXIS2_PLACEMENT_3D ( 'NONE', #219, #45, #68 ) ;
#12 = ORIENTED_EDGE ( 'NONE', *, *, #151, .T. ) ;
#13 = DIRECTION ( 'NONE',  ( 0.0000000000000000000, -1.000000000000000000, 0.0000000000000000000 ) ) ;
#14 = CC_DESIGN_PERSON_AND_ORGANIZATION_ASSIGNMENT ( #212, #156, ( #164 ) ) ;
#15 = CARTESIAN_POINT ( 'NONE',  ( 1.047444401652940007E-13, -3.673940397442059178E-15, 30.00000000000000000 ) ) ;
#16 = EDGE_CURVE ( 'NONE', #20, #20, #25, .T. ) ;
#17 = DIRECTION ( 'NONE',  ( 0.0000000000000000000, 1.000000000000000000, 0.0000000000000000000 ) ) ;
#18 = CARTESIAN_POINT ( 'NONE',  ( 1.043952920314096936E-13, -3.661693929450586610E-15, 29.90000000000000213 ) ) ;
#19 = DESIGN_CONTEXT ( 'detailed design', #61, 'design' ) ;
#20 = VERTEX_POINT ( 'NONE', #161 ) ;
#21 = COORDINATED_UNIVERSAL_TIME_OFFSET ( 1, 0, .AHEAD. ) ;
#22 = DATE_AND_TIME ( #178, #176 ) ;
#23 = DIRECTION ( 'NONE',  ( 0.0000000000000000000, 0.0000000000000000000, 1.000000000000000000 ) ) ;
#24 = COORDINATED_UNIVERSAL_TIME_OFFSET ( 1, 0, .AHEAD. ) ;
#25 = CIRCLE ( 'NONE', #186, 0.4999999999999991673 ) ;
#26 = EDGE_LOOP ( 'NONE', ( #214 ) ) ;
#27 = ADVANCED_FACE ( 'NONE', ( #69, #4 ), #220, .T. ) ;
#28 = EDGE_LOOP ( 'NONE', ( #72 ) ) ;
#29 = EDGE_LOOP ( 'NONE', ( #12 ) ) ;
#30 = DIRECTION ( 'NONE',  ( -3.491481338843133355E-15, 1.224646799147353207E-16, -1.000000000000000000 ) ) ;
#31 = CARTESIAN_POINT ( 'NONE',  ( 1.047444401652940007E-13, -3.673940397442059178E-15, 30.00000000000000000 ) ) ;
#32 = APPROVAL_STATUS ( 'not_yet_approved' ) ;
#33 = CARTESIAN_POINT ( 'NONE',  ( 1.993317998676152740E-14, -6.991618370128236340E-16, 5.709089653438097045 ) ) ;
#34 = FACE_OUTER_BOUND ( 'NONE', #180, .T. ) ;
#35 = CARTESIAN_POINT ( 'NONE',  ( 1.047444401652940007E-13, 2.999519565323652267E-33, 30.00000000000000000 ) ) ;
#36 = DIRECTION ( 'NONE',  ( 1.000000000000000000, 0.0000000000000000000, 0.0000000000000000000 ) ) ;
#37 = AXIS2_PLACEMENT_3D ( 'NONE', #35, #187, #185 ) ;
#38 = DATE_AND_TIME ( #194, #181 ) ;
#39 = DATE_AND_TIME ( #141, #115 ) ;
#40 =( LENGTH_UNIT ( ) NAMED_UNIT ( * ) SI_UNIT ( .MILLI., .METRE. ) );
#41 = APPROVAL_ROLE ( '' ) ;
#42 = AXIS2_PLACEMENT_3D ( 'NONE', #85, #70, #114 ) ;
#43 = EDGE_LOOP ( 'NONE', ( #155 ) ) ;
#44 = SHAPE_DEFINITION_REPRESENTATION ( #95, #166 ) ;
#45 = DIRECTION ( 'NONE',  ( -3.491481338843133355E-15, 1.224646799147353207E-16, -1.000000000000000000 ) ) ;
#46 = COORDINATED_UNIVERSAL_TIME_OFFSET ( 1, 0, .AHEAD. ) ;
#47 = DIRECTION ( 'NONE',  ( 0.0000000000000000000, 1.000000000000000000, 0.0000000000000000000 ) ) ;
#48 =( GEOMETRIC_REPRESENTATION_CONTEXT ( 3 ) GLOBAL_UNCERTAINTY_ASSIGNED_CONTEXT ( ( #189 ) ) GLOBAL_UNIT_ASSIGNED_CONTEXT ( ( #40, #92, #7 ) ) REPRESENTATION_CONTEXT ( 'NONE', 'WORKASPACE' ) );
#49 = CIRCLE ( 'NONE', #64, 0.3099999999999995537 ) ;
#50 = DIRECTION ( 'NONE',  ( 3.491481338843133355E-15, -1.224646799147353207E-16, 1.000000000000000000 ) ) ;
#51 = ADVANCED_FACE ( 'NONE', ( #190 ), #81, .F. ) ;
#52 = AXIS2_PLACEMENT_3D ( 'NONE', #15, #82, #54 ) ;
#53 = DIRECTION ( 'NONE',  ( 0.0000000000000000000, 1.000000000000000000, 0.0000000000000000000 ) ) ;
#54 = DIRECTION ( 'NONE',  ( 0.0000000000000000000, 1.000000000000000000, 0.0000000000000000000 ) ) ;
#55 = ORGANIZATION ( 'UNSPECIFIED', 'UNSPECIFIED', '' ) ;
#56 = APPROVAL_STATUS ( 'not_yet_approved' ) ;
#57 = PERSON_AND_ORGANIZATION_ROLE ( 'classification_officer' ) ;
#58 = CALENDAR_DATE ( 2021, 8, 10 ) ;
#59 = APPROVAL_STATUS ( 'not_yet_approved' ) ;
#60 = LOCAL_TIME ( 7, 14, 28.00000000000000000, #63 ) ;
#61 = APPLICATION_CONTEXT ( 'configuration controlled 3d designs of mechanical parts and assemblies' ) ;
#62 = ORIENTED_EDGE ( 'NONE', *, *, #209, .F. ) ;
#63 = COORDINATED_UNIVERSAL_TIME_OFFSET ( 1, 0, .AHEAD. ) ;
#64 = AXIS2_PLACEMENT_3D ( 'NONE', #10, #76, #131 ) ;
#65 = ORIENTED_EDGE ( 'NONE', *, *, #151, .F. ) ;
#66 = CC_DESIGN_APPROVAL ( #193, ( #165 ) ) ;
#67 = FACE_OUTER_BOUND ( 'NONE', #127, .T. ) ;
#68 = DIRECTION ( 'NONE',  ( 3.106338619979423345E-31, 1.000000000000000000, 8.743565907141194850E-17 ) ) ;
#69 = FACE_BOUND ( 'NONE', #26, .T. ) ;
#70 = DIRECTION ( 'NONE',  ( -3.491481338843133355E-15, 1.224646799147353207E-16, -1.000000000000000000 ) ) ;
#71 = MANIFOLD_SOLID_BREP ( 'Corps-Déplacer/Copier1[2]', #99 ) ;
#72 = ORIENTED_EDGE ( 'NONE', *, *, #111, .F. ) ;
#73 = APPROVAL_DATE_TIME ( #138, #193 ) ;
#74 = CC_DESIGN_PERSON_AND_ORGANIZATION_ASSIGNMENT ( #215, #103, ( #158 ) ) ;
#75 = PERSON_AND_ORGANIZATION_ROLE ( 'creator' ) ;
#76 = DIRECTION ( 'NONE',  ( -3.491481338843133355E-15, 1.224646799147353207E-16, -1.000000000000000000 ) ) ;
#77 = CLOSED_SHELL ( 'NONE', ( #148, #27, #199, #143, #51 ) ) ;
#78 = ORIENTED_EDGE ( 'NONE', *, *, #209, .T. ) ;
#79 = CALENDAR_DATE ( 2021, 8, 10 ) ;
#80 = DIRECTION ( 'NONE',  ( -3.491481338843133355E-15, 1.224646799147353207E-16, -1.000000000000000000 ) ) ;
#81 = PLANE ( 'NONE',  #37 ) ;
#82 = DIRECTION ( 'NONE',  ( -3.491481338843133355E-15, 1.224646799147353207E-16, -1.000000000000000000 ) ) ;
#83 = DIRECTION ( 'NONE',  ( -4.275831445896958607E-31, -1.000000000000000000, -1.224646799147353207E-16 ) ) ;
#84 = AXIS2_PLACEMENT_3D ( 'NONE', #163, #30, #17 ) ;
#85 = CARTESIAN_POINT ( 'NONE',  ( 0.0000000000000000000, 0.0000000000000000000, 0.0000000000000000000 ) ) ;
#86 = APPROVAL ( #56, 'UNSPECIFIED' ) ;
#87 = PERSON_AND_ORGANIZATION ( #217, #55 ) ;
#88 = ORIENTED_EDGE ( 'NONE', *, *, #175, .T. ) ;
#89 = AXIS2_PLACEMENT_3D ( 'NONE', #120, #188, #102 ) ;
#90 = VERTEX_POINT ( 'NONE', #198 ) ;
#91 = APPROVAL ( #32, 'UNSPECIFIED' ) ;
#92 =( NAMED_UNIT ( * ) PLANE_ANGLE_UNIT ( ) SI_UNIT ( $, .RADIAN. ) );
#93 = CC_DESIGN_APPROVAL ( #91, ( #191 ) ) ;
#94 = EDGE_LOOP ( 'NONE', ( #109 ) ) ;
#95 = PRODUCT_DEFINITION_SHAPE ( 'NONE', 'NONE',  #165 ) ;
#96 = VERTEX_POINT ( 'NONE', #3 ) ;
#97 = FACE_OUTER_BOUND ( 'NONE', #43, .T. ) ;
#98 = APPROVAL_DATE_TIME ( #182, #91 ) ;
#99 = CLOSED_SHELL ( 'NONE', ( #139, #218, #184 ) ) ;
#100 = DIRECTION ( 'NONE',  ( 0.0000000000000000000, 1.000000000000000000, 0.0000000000000000000 ) ) ;
#101 = CYLINDRICAL_SURFACE ( 'NONE', #42, 0.4999999999999980571 ) ;
#102 = DIRECTION ( 'NONE',  ( -4.275831445896958607E-31, -1.000000000000000000, -1.224646799147353207E-16 ) ) ;
#103 = PERSON_AND_ORGANIZATION_ROLE ( 'design_supplier' ) ;
#104 = PRODUCT_RELATED_PRODUCT_CATEGORY ( 'detail', '', ( #164 ) ) ;
#105 = DATE_TIME_ROLE ( 'classification_date' ) ;
#106 = LOCAL_TIME ( 7, 14, 28.00000000000000000, #46 ) ;
#107 = APPLICATION_PROTOCOL_DEFINITION ( 'international standard', 'config_control_design', 1994, #201 ) ;
#108 = PERSON_AND_ORGANIZATION ( #217, #55 ) ;
#109 = ORIENTED_EDGE ( 'NONE', *, *, #16, .T. ) ;
#110 = CIRCLE ( 'NONE', #134, 0.4999999999999970024 ) ;
#111 = EDGE_CURVE ( 'NONE', #144, #144, #204, .T. ) ;
#112 = CARTESIAN_POINT ( 'NONE',  ( 6.503470279599474706E-16, -2.281110304859993655E-17, 0.1862667918985450866 ) ) ;
#113 = CC_DESIGN_DATE_AND_TIME_ASSIGNMENT ( #22, #210, ( #165 ) ) ;
#114 = DIRECTION ( 'NONE',  ( 4.275831445896958607E-31, 1.000000000000000000, 1.224646799147353207E-16 ) ) ;
#115 = LOCAL_TIME ( 7, 14, 28.00000000000000000, #21 ) ;
#116 = FACE_OUTER_BOUND ( 'NONE', #94, .T. ) ;
#117 = CONICAL_SURFACE ( 'NONE', #52, 0.3999999999999989675, 0.7853981633974694843 ) ;
#118 = CYLINDRICAL_SURFACE ( 'NONE', #147, 0.3099999999999992206 ) ;
#119 = CC_DESIGN_PERSON_AND_ORGANIZATION_ASSIGNMENT ( #87, #57, ( #191 ) ) ;
#120 = CARTESIAN_POINT ( 'NONE',  ( 1.745740669421566678E-14, 2.324627663125867181E-33, 5.000000000000000000 ) ) ;
#121 = SECURITY_CLASSIFICATION_LEVEL ( 'unclassified' ) ;
#122 = COORDINATED_UNIVERSAL_TIME_OFFSET ( 1, 0, .AHEAD. ) ;
#123 = PERSON_AND_ORGANIZATION_ROLE ( 'creator' ) ;
#124 = EDGE_LOOP ( 'NONE', ( #88 ) ) ;
#125 = CIRCLE ( 'NONE', #84, 0.3099999999999995537 ) ;
#126 = APPROVAL_DATE_TIME ( #39, #86 ) ;
#127 = EDGE_LOOP ( 'NONE', ( #183 ) ) ;
#128 = CC_DESIGN_DATE_AND_TIME_ASSIGNMENT ( #38, #105, ( #191 ) ) ;
#129 = PLANE ( 'NONE',  #89 ) ;
#130 = PERSON_AND_ORGANIZATION ( #217, #55 ) ;
#131 = DIRECTION ( 'NONE',  ( 0.0000000000000000000, 1.000000000000000000, 0.0000000000000000000 ) ) ;
#132 = CC_DESIGN_PERSON_AND_ORGANIZATION_ASSIGNMENT ( #153, #75, ( #158 ) ) ;
#133 = FACE_OUTER_BOUND ( 'NONE', #124, .T. ) ;
#134 = AXIS2_PLACEMENT_3D ( 'NONE', #33, #80, #53 ) ;
#135 = FACE_OUTER_BOUND ( 'NONE', #159, .T. ) ;
#136 = DIRECTION ( 'NONE',  ( -3.491481338843133355E-15, 1.224646799147353207E-16, -1.000000000000000000 ) ) ;
#137 = AXIS2_PLACEMENT_3D ( 'NONE', #195, #23, #36 ) ;
#138 = DATE_AND_TIME ( #58, #60 ) ;
#139 = ADVANCED_FACE ( 'NONE', ( #97 ), #160, .T. ) ;
#140 = ORIENTED_EDGE ( 'NONE', *, *, #175, .F. ) ;
#141 = CALENDAR_DATE ( 2021, 8, 10 ) ;
#142 = VERTEX_POINT ( 'NONE', #177 ) ;
#143 = ADVANCED_FACE ( 'NONE', ( #67, #208 ), #117, .T. ) ;
#144 = VERTEX_POINT ( 'NONE', #200 ) ;
#145 = AXIS2_PLACEMENT_3D ( 'NONE', #112, #146, #221 ) ;
#146 = DIRECTION ( 'NONE',  ( 3.491481338843133355E-15, -1.224646799147353207E-16, 1.000000000000000000 ) ) ;
#147 = AXIS2_PLACEMENT_3D ( 'NONE', #152, #205, #150 ) ;
#148 = ADVANCED_FACE ( 'NONE', ( #202 ), #129, .F. ) ;
#149 = CARTESIAN_POINT ( 'NONE',  ( 1.993317998676152740E-14, -6.991618370128236340E-16, 5.709089653438097045 ) ) ;
#150 = DIRECTION ( 'NONE',  ( 4.275831445896959482E-31, 1.000000000000000000, 1.224646799147353207E-16 ) ) ;
#151 = EDGE_CURVE ( 'NONE', #9, #9, #162, .T. ) ;
#152 = CARTESIAN_POINT ( 'NONE',  ( 0.0000000000000000000, 0.0000000000000000000, 0.0000000000000000000 ) ) ;
#153 = PERSON_AND_ORGANIZATION ( #217, #55 ) ;
#154 = MECHANICAL_CONTEXT ( 'NONE', #201, 'mechanical' ) ;
#155 = ORIENTED_EDGE ( 'NONE', *, *, #111, .T. ) ;
#156 = PERSON_AND_ORGANIZATION_ROLE ( 'design_owner' ) ;
#157 = EDGE_LOOP ( 'NONE', ( #179 ) ) ;
#158 = PRODUCT_DEFINITION_FORMATION_WITH_SPECIFIED_SOURCE ( 'ANY', '', #164, .NOT_KNOWN. ) ;
#159 = EDGE_LOOP ( 'NONE', ( #140 ) ) ;
#160 = CONICAL_SURFACE ( 'NONE', #145, 0.3099999999999989431, 1.029744258676649649 ) ;
#161 = CARTESIAN_POINT ( 'NONE',  ( 1.043952920314096936E-13, 0.4999999999999954481, 29.90000000000000213 ) ) ;
#162 = CIRCLE ( 'NONE', #196, 0.3999999999999989675 ) ;
#163 = CARTESIAN_POINT ( 'NONE',  ( 1.745740669421566678E-14, -6.123233995736766282E-16, 5.000000000000000000 ) ) ;
#164 = PRODUCT ( '55314', '55314', '', ( #154 ) ) ;
#165 = PRODUCT_DEFINITION ( 'UNKNOWN', '', #158, #19 ) ;
#166 = ADVANCED_BREP_SHAPE_REPRESENTATION ( '55314', ( #222, #71, #137 ), #48 ) ;
#167 = FACE_OUTER_BOUND ( 'NONE', #28, .T. ) ;
#168 = CARTESIAN_POINT ( 'NONE',  ( 1.745740669421566678E-14, 2.324627663125867181E-33, 5.000000000000000000 ) ) ;
#169 = DIRECTION ( 'NONE',  ( 3.491481338843133355E-15, -1.224646799147353207E-16, 1.000000000000000000 ) ) ;
#170 = AXIS2_PLACEMENT_3D ( 'NONE', #168, #169, #83 ) ;
#171 = CC_DESIGN_SECURITY_CLASSIFICATION ( #191, ( #158 ) ) ;
#172 = CARTESIAN_POINT ( 'NONE',  ( 1.047444401652940007E-13, 0.3999999999999953038, 30.00000000000000000 ) ) ;
#173 = AXIS2_PLACEMENT_3D ( 'NONE', #149, #50, #13 ) ;
#174 = APPROVAL_ROLE ( '' ) ;
#175 = EDGE_CURVE ( 'NONE', #142, #142, #125, .T. ) ;
#176 = LOCAL_TIME ( 7, 14, 28.00000000000000000, #24 ) ;
#177 = CARTESIAN_POINT ( 'NONE',  ( 1.745740669421566678E-14, 0.3099999999999989431, 5.000000000000000000 ) ) ;
#178 = CALENDAR_DATE ( 2021, 8, 10 ) ;
#179 = ORIENTED_EDGE ( 'NONE', *, *, #2, .T. ) ;
#180 = EDGE_LOOP ( 'NONE', ( #62 ) ) ;
#181 = LOCAL_TIME ( 7, 14, 28.00000000000000000, #122 ) ;
#182 = DATE_AND_TIME ( #79, #106 ) ;
#183 = ORIENTED_EDGE ( 'NONE', *, *, #16, .F. ) ;
#184 = ADVANCED_FACE ( 'NONE', ( #135 ), #207, .T. ) ;
#185 = DIRECTION ( 'NONE',  ( 4.275831445896958607E-31, 1.000000000000000000, 1.224646799147353207E-16 ) ) ;
#186 = AXIS2_PLACEMENT_3D ( 'NONE', #18, #1, #100 ) ;
#187 = DIRECTION ( 'NONE',  ( -3.491481338843133355E-15, 1.224646799147353207E-16, -1.000000000000000000 ) ) ;
#188 = DIRECTION ( 'NONE',  ( 3.491481338843133355E-15, -1.224646799147353207E-16, 1.000000000000000000 ) ) ;
#189 = UNCERTAINTY_MEASURE_WITH_UNIT (LENGTH_MEASURE( 1.000000000000000082E-05 ), #40, 'distance_accuracy_value', 'NONE');
#190 = FACE_OUTER_BOUND ( 'NONE', #216, .T. ) ;
#191 = SECURITY_CLASSIFICATION ( '', '', #121 ) ;
#192 = PERSON_AND_ORGANIZATION ( #217, #55 ) ;
#193 = APPROVAL ( #59, 'UNSPECIFIED' ) ;
#194 = CALENDAR_DATE ( 2021, 8, 10 ) ;
#195 = CARTESIAN_POINT ( 'NONE',  ( 0.0000000000000000000, 0.0000000000000000000, 0.0000000000000000000 ) ) ;
#196 = AXIS2_PLACEMENT_3D ( 'NONE', #31, #136, #47 ) ;
#197 = APPROVAL_PERSON_ORGANIZATION ( #213, #86, #211 ) ;
#198 = CARTESIAN_POINT ( 'NONE',  ( 1.993317998676152740E-14, 0.4999999999999963363, 5.709089653438097045 ) ) ;
#199 = ADVANCED_FACE ( 'NONE', ( #34, #116 ), #101, .T. ) ;
#200 = CARTESIAN_POINT ( 'NONE',  ( 6.503470279599475692E-16, 0.3099999999999989431, 0.1862667918985451143 ) ) ;
#201 = APPLICATION_CONTEXT ( 'configuration controlled 3d designs of mechanical parts and assemblies' ) ;
#202 = FACE_OUTER_BOUND ( 'NONE', #157, .T. ) ;
#203 = APPROVAL_PERSON_ORGANIZATION ( #192, #193, #174 ) ;
#204 = CIRCLE ( 'NONE', #11, 0.3099999999999989431 ) ;
#205 = DIRECTION ( 'NONE',  ( -3.491481338843133355E-15, 1.224646799147353207E-16, -1.000000000000000000 ) ) ;
#206 = CC_DESIGN_APPROVAL ( #86, ( #158 ) ) ;
#207 = PLANE ( 'NONE',  #170 ) ;
#208 = FACE_BOUND ( 'NONE', #29, .T. ) ;
#209 = EDGE_CURVE ( 'NONE', #90, #90, #110, .T. ) ;
#210 = DATE_TIME_ROLE ( 'creation_date' ) ;
#211 = APPROVAL_ROLE ( '' ) ;
#212 = PERSON_AND_ORGANIZATION ( #217, #55 ) ;
#213 = PERSON_AND_ORGANIZATION ( #217, #55 ) ;
#214 = ORIENTED_EDGE ( 'NONE', *, *, #2, .F. ) ;
#215 = PERSON_AND_ORGANIZATION ( #217, #55 ) ;
#216 = EDGE_LOOP ( 'NONE', ( #65 ) ) ;
#217 = PERSON ( 'UNSPECIFIED', 'UNSPECIFIED', 'UNSPECIFIED', ('UNSPECIFIED'), ('UNSPECIFIED'), ('UNSPECIFIED') ) ;
#218 = ADVANCED_FACE ( 'NONE', ( #167, #133 ), #118, .T. ) ;
#219 = CARTESIAN_POINT ( 'NONE',  ( 6.503470279599474706E-16, -2.281110304859993655E-17, 0.1862667918985450866 ) ) ;
#220 = CONICAL_SURFACE ( 'NONE', #173, 0.4999999999999970024, 0.2617993877991425244 ) ;
#221 = DIRECTION ( 'NONE',  ( -3.106338619979423345E-31, -1.000000000000000000, -8.743565907141194850E-17 ) ) ;
#222 = MANIFOLD_SOLID_BREP ( 'Corps-Déplacer/Copier1[1]', #77 ) ;
#223 = APPROVAL_PERSON_ORGANIZATION ( #130, #91, #41 ) ;
ENDSEC;
END-ISO-10303-21;
