ISO-10303-21;
HEADER;
FILE_DESCRIPTION (( 'STEP AP203' ),
    '1' );
FILE_NAME ('55313.step',
    '2021-10-08T05:14:27',
    ( '' ),
    ( '' ),
    'SwSTEP 2.0',
    'SolidWorks 2019',
    '' );
FILE_SCHEMA (( 'CONFIG_CONTROL_DESIGN' ));
ENDSEC;

DATA;
#1 = DIRECTION ( 'NONE',  ( -3.491481338843133355E-15, 1.224646799147353207E-16, -1.000000000000000000 ) ) ;
#2 = FACE_OUTER_BOUND ( 'NONE', #116, .T. ) ;
#3 = ADVANCED_FACE ( 'NONE', ( #162 ), #79, .T. ) ;
#4 = CARTESIAN_POINT ( 'NONE',  ( 1.999833191551273251E-14, -7.014470590506958562E-16, 5.727749907475940816 ) ) ;
#5 = ORIENTED_EDGE ( 'NONE', *, *, #145, .F. ) ;
#6 = DIRECTION ( 'NONE',  ( 0.0000000000000000000, 1.000000000000000000, 0.0000000000000000000 ) ) ;
#7 = LOCAL_TIME ( 7, 14, 27.00000000000000000, #138 ) ;
#8 = PRODUCT_DEFINITION_FORMATION_WITH_SPECIFIED_SOURCE ( 'ANY', '', #47, .NOT_KNOWN. ) ;
#9 =( GEOMETRIC_REPRESENTATION_CONTEXT ( 3 ) GLOBAL_UNCERTAINTY_ASSIGNED_CONTEXT ( ( #192 ) ) GLOBAL_UNIT_ASSIGNED_CONTEXT ( ( #223, #170, #200 ) ) REPRESENTATION_CONTEXT ( 'NONE', 'WORKASPACE' ) );
#10 = APPLICATION_CONTEXT ( 'configuration controlled 3d designs of mechanical parts and assemblies' ) ;
#11 = PERSON_AND_ORGANIZATION_ROLE ( 'creator' ) ;
#12 = PERSON_AND_ORGANIZATION ( #18, #67 ) ;
#13 = AXIS2_PLACEMENT_3D ( 'NONE', #196, #215, #112 ) ;
#14 = DIRECTION ( 'NONE',  ( 0.0000000000000000000, 0.0000000000000000000, 1.000000000000000000 ) ) ;
#15 = APPROVAL_DATE_TIME ( #209, #155 ) ;
#16 = CC_DESIGN_SECURITY_CLASSIFICATION ( #76, ( #8 ) ) ;
#17 = CARTESIAN_POINT ( 'NONE',  ( 1.047444401652940007E-13, -3.673940397442059178E-15, 30.00000000000000000 ) ) ;
#18 = PERSON ( 'UNSPECIFIED', 'UNSPECIFIED', 'UNSPECIFIED', ('UNSPECIFIED'), ('UNSPECIFIED'), ('UNSPECIFIED') ) ;
#19 = EDGE_LOOP ( 'NONE', ( #73 ) ) ;
#20 = CONICAL_SURFACE ( 'NONE', #150, 0.3999999999999989675, 0.7853981633974694843 ) ;
#21 = EDGE_LOOP ( 'NONE', ( #54 ) ) ;
#22 = CARTESIAN_POINT ( 'NONE',  ( 1.745740669421566678E-14, 0.3049999999999989386, 5.000000000000000000 ) ) ;
#23 = FACE_OUTER_BOUND ( 'NONE', #91, .T. ) ;
#24 = CARTESIAN_POINT ( 'NONE',  ( 1.043952920314096936E-13, -3.661693929450586610E-15, 29.90000000000000213 ) ) ;
#25 = AXIS2_PLACEMENT_3D ( 'NONE', #77, #130, #198 ) ;
#26 = PERSON_AND_ORGANIZATION ( #18, #67 ) ;
#27 = COORDINATED_UNIVERSAL_TIME_OFFSET ( 1, 0, .AHEAD. ) ;
#28 = DATE_TIME_ROLE ( 'creation_date' ) ;
#29 = EDGE_CURVE ( 'NONE', #157, #157, #126, .T. ) ;
#30 = PERSON_AND_ORGANIZATION_ROLE ( 'design_supplier' ) ;
#31 = COORDINATED_UNIVERSAL_TIME_OFFSET ( 1, 0, .AHEAD. ) ;
#32 = CC_DESIGN_DATE_AND_TIME_ASSIGNMENT ( #59, #28, ( #62 ) ) ;
#33 = DIRECTION ( 'NONE',  ( 0.0000000000000000000, -1.000000000000000000, 0.0000000000000000000 ) ) ;
#34 = DIRECTION ( 'NONE',  ( 0.0000000000000000000, 1.000000000000000000, 0.0000000000000000000 ) ) ;
#35 = EDGE_LOOP ( 'NONE', ( #69 ) ) ;
#36 = CONICAL_SURFACE ( 'NONE', #140, 0.3049999999999989386, 1.029744258676649649 ) ;
#37 = APPLICATION_CONTEXT ( 'configuration controlled 3d designs of mechanical parts and assemblies' ) ;
#38 = CARTESIAN_POINT ( 'NONE',  ( 1.047444401652940007E-13, -3.673940397442059178E-15, 30.00000000000000000 ) ) ;
#39 = AXIS2_PLACEMENT_3D ( 'NONE', #4, #72, #6 ) ;
#40 = DATE_AND_TIME ( #46, #101 ) ;
#41 = VERTEX_POINT ( 'NONE', #212 ) ;
#42 = CALENDAR_DATE ( 2021, 8, 10 ) ;
#43 = CARTESIAN_POINT ( 'NONE',  ( 0.0000000000000000000, 0.0000000000000000000, 0.0000000000000000000 ) ) ;
#44 = APPROVAL_PERSON_ORGANIZATION ( #134, #199, #222 ) ;
#45 = CC_DESIGN_PERSON_AND_ORGANIZATION_ASSIGNMENT ( #84, #65, ( #76 ) ) ;
#46 = CALENDAR_DATE ( 2021, 8, 10 ) ;
#47 = PRODUCT ( '55313', '55313', '', ( #100 ) ) ;
#48 = DATE_AND_TIME ( #121, #7 ) ;
#49 = PRODUCT_RELATED_PRODUCT_CATEGORY ( 'detail', '', ( #47 ) ) ;
#50 = CIRCLE ( 'NONE', #39, 0.4999999999999970024 ) ;
#51 = EDGE_CURVE ( 'NONE', #109, #109, #190, .T. ) ;
#52 = DIRECTION ( 'NONE',  ( -3.491481338843133355E-15, 1.224646799147353207E-16, -1.000000000000000000 ) ) ;
#53 = DIRECTION ( 'NONE',  ( -3.491481338843133355E-15, 1.224646799147353207E-16, -1.000000000000000000 ) ) ;
#54 = ORIENTED_EDGE ( 'NONE', *, *, #51, .F. ) ;
#55 = CC_DESIGN_APPROVAL ( #68, ( #62 ) ) ;
#56 = DIRECTION ( 'NONE',  ( -3.491481338843133355E-15, 1.224646799147353207E-16, -1.000000000000000000 ) ) ;
#57 = AXIS2_PLACEMENT_3D ( 'NONE', #58, #98, #115 ) ;
#58 = CARTESIAN_POINT ( 'NONE',  ( 0.0000000000000000000, 0.0000000000000000000, 0.0000000000000000000 ) ) ;
#59 = DATE_AND_TIME ( #221, #120 ) ;
#60 = APPROVAL_STATUS ( 'not_yet_approved' ) ;
#61 = APPLICATION_PROTOCOL_DEFINITION ( 'international standard', 'config_control_design', 1994, #37 ) ;
#62 = PRODUCT_DEFINITION ( 'UNKNOWN', '', #8, #172 ) ;
#63 = MANIFOLD_SOLID_BREP ( 'Corps-Déplacer/Copier1[1]', #171 ) ;
#64 = APPROVAL_DATE_TIME ( #48, #68 ) ;
#65 = PERSON_AND_ORGANIZATION_ROLE ( 'classification_officer' ) ;
#66 = CARTESIAN_POINT ( 'NONE',  ( 1.047444401652940007E-13, 0.3999999999999953038, 30.00000000000000000 ) ) ;
#67 = ORGANIZATION ( 'UNSPECIFIED', 'UNSPECIFIED', '' ) ;
#68 = APPROVAL ( #186, 'UNSPECIFIED' ) ;
#69 = ORIENTED_EDGE ( 'NONE', *, *, #145, .T. ) ;
#70 = ORIENTED_EDGE ( 'NONE', *, *, #29, .F. ) ;
#71 = CIRCLE ( 'NONE', #97, 0.3049999999999995492 ) ;
#72 = DIRECTION ( 'NONE',  ( -3.491481338843133355E-15, 1.224646799147353207E-16, -1.000000000000000000 ) ) ;
#73 = ORIENTED_EDGE ( 'NONE', *, *, #218, .F. ) ;
#74 = DIRECTION ( 'NONE',  ( 3.157262203913512389E-31, 1.000000000000000000, 8.886903053159903346E-17 ) ) ;
#75 = CIRCLE ( 'NONE', #179, 0.4999999999999991673 ) ;
#76 = SECURITY_CLASSIFICATION ( '', '', #103 ) ;
#77 = CARTESIAN_POINT ( 'NONE',  ( 1.047444401652940007E-13, 2.999519565323652267E-33, 30.00000000000000000 ) ) ;
#78 = EDGE_LOOP ( 'NONE', ( #220 ) ) ;
#79 = PLANE ( 'NONE',  #104 ) ;
#80 = APPLICATION_PROTOCOL_DEFINITION ( 'international standard', 'config_control_design', 1994, #10 ) ;
#81 = ADVANCED_FACE ( 'NONE', ( #128 ), #96, .F. ) ;
#82 = DIRECTION ( 'NONE',  ( 1.000000000000000000, 0.0000000000000000000, 0.0000000000000000000 ) ) ;
#83 = CONICAL_SURFACE ( 'NONE', #132, 0.4999999999999970024, 0.2617993877991429130 ) ;
#84 = PERSON_AND_ORGANIZATION ( #18, #67 ) ;
#85 = PERSON_AND_ORGANIZATION_ROLE ( 'design_owner' ) ;
#86 = DIRECTION ( 'NONE',  ( 3.491481338843133355E-15, -1.224646799147353207E-16, 1.000000000000000000 ) ) ;
#87 = CC_DESIGN_PERSON_AND_ORGANIZATION_ASSIGNMENT ( #188, #205, ( #62 ) ) ;
#88 = DIRECTION ( 'NONE',  ( 0.0000000000000000000, 1.000000000000000000, 0.0000000000000000000 ) ) ;
#89 = SHAPE_DEFINITION_REPRESENTATION ( #183, #148 ) ;
#90 = ORIENTED_EDGE ( 'NONE', *, *, #110, .T. ) ;
#91 = EDGE_LOOP ( 'NONE', ( #127 ) ) ;
#92 = ADVANCED_FACE ( 'NONE', ( #182, #23 ), #131, .T. ) ;
#93 = EDGE_LOOP ( 'NONE', ( #5 ) ) ;
#94 = CARTESIAN_POINT ( 'NONE',  ( 1.745740669421566678E-14, 2.287133668559320810E-33, 5.000000000000000000 ) ) ;
#95 = ORIENTED_EDGE ( 'NONE', *, *, #51, .T. ) ;
#96 = PLANE ( 'NONE',  #25 ) ;
#97 = AXIS2_PLACEMENT_3D ( 'NONE', #117, #56, #184 ) ;
#98 = DIRECTION ( 'NONE',  ( -3.491481338843133355E-15, 1.224646799147353207E-16, -1.000000000000000000 ) ) ;
#99 = FACE_OUTER_BOUND ( 'NONE', #178, .T. ) ;
#100 = MECHANICAL_CONTEXT ( 'NONE', #37, 'mechanical' ) ;
#101 = LOCAL_TIME ( 7, 14, 27.00000000000000000, #27 ) ;
#102 = CARTESIAN_POINT ( 'NONE',  ( 1.043952920314096936E-13, 0.4999999999999954481, 29.90000000000000213 ) ) ;
#103 = SECURITY_CLASSIFICATION_LEVEL ( 'unclassified' ) ;
#104 = AXIS2_PLACEMENT_3D ( 'NONE', #94, #149, #219 ) ;
#105 = DATE_AND_TIME ( #118, #167 ) ;
#106 = CC_DESIGN_PERSON_AND_ORGANIZATION_ASSIGNMENT ( #189, #30, ( #8 ) ) ;
#107 = CARTESIAN_POINT ( 'NONE',  ( 6.398575597670452861E-16, 0.3049999999999989386, 0.1832624888034073141 ) ) ;
#108 = FACE_OUTER_BOUND ( 'NONE', #160, .T. ) ;
#109 = VERTEX_POINT ( 'NONE', #66 ) ;
#110 = EDGE_CURVE ( 'NONE', #193, #193, #71, .T. ) ;
#111 = CC_DESIGN_APPROVAL ( #155, ( #76 ) ) ;
#112 = DIRECTION ( 'NONE',  ( 0.0000000000000000000, 1.000000000000000000, 0.0000000000000000000 ) ) ;
#113 = ORIENTED_EDGE ( 'NONE', *, *, #110, .F. ) ;
#114 = FACE_BOUND ( 'NONE', #159, .T. ) ;
#115 = DIRECTION ( 'NONE',  ( 4.275831445896958607E-31, 1.000000000000000000, 1.224646799147353207E-16 ) ) ;
#116 = EDGE_LOOP ( 'NONE', ( #177 ) ) ;
#117 = CARTESIAN_POINT ( 'NONE',  ( 1.745740669421566678E-14, -6.123233995736766282E-16, 5.000000000000000000 ) ) ;
#118 = CALENDAR_DATE ( 2021, 8, 10 ) ;
#119 = CC_DESIGN_PERSON_AND_ORGANIZATION_ASSIGNMENT ( #203, #85, ( #47 ) ) ;
#120 = LOCAL_TIME ( 7, 14, 27.00000000000000000, #124 ) ;
#121 = CALENDAR_DATE ( 2021, 8, 10 ) ;
#122 = APPROVAL_DATE_TIME ( #40, #199 ) ;
#123 = CC_DESIGN_DATE_AND_TIME_ASSIGNMENT ( #105, #185, ( #76 ) ) ;
#124 = COORDINATED_UNIVERSAL_TIME_OFFSET ( 1, 0, .AHEAD. ) ;
#125 = AXIS2_PLACEMENT_3D ( 'NONE', #38, #163, #143 ) ;
#126 = CIRCLE ( 'NONE', #137, 0.3049999999999989386 ) ;
#127 = ORIENTED_EDGE ( 'NONE', *, *, #218, .T. ) ;
#128 = FACE_OUTER_BOUND ( 'NONE', #21, .T. ) ;
#129 = CC_DESIGN_PERSON_AND_ORGANIZATION_ASSIGNMENT ( #12, #11, ( #8 ) ) ;
#130 = DIRECTION ( 'NONE',  ( -3.491481338843133355E-15, 1.224646799147353207E-16, -1.000000000000000000 ) ) ;
#131 = CYLINDRICAL_SURFACE ( 'NONE', #57, 0.4999999999999980571 ) ;
#132 = AXIS2_PLACEMENT_3D ( 'NONE', #208, #206, #33 ) ;
#133 = ADVANCED_FACE ( 'NONE', ( #99, #165 ), #151, .T. ) ;
#134 = PERSON_AND_ORGANIZATION ( #18, #67 ) ;
#135 = CARTESIAN_POINT ( 'NONE',  ( 0.0000000000000000000, 0.0000000000000000000, 0.0000000000000000000 ) ) ;
#136 = APPROVAL_ROLE ( '' ) ;
#137 = AXIS2_PLACEMENT_3D ( 'NONE', #213, #181, #74 ) ;
#138 = COORDINATED_UNIVERSAL_TIME_OFFSET ( 1, 0, .AHEAD. ) ;
#139 = MANIFOLD_SOLID_BREP ( 'Corps-Déplacer/Copier1[2]', #195 ) ;
#140 = AXIS2_PLACEMENT_3D ( 'NONE', #194, #86, #156 ) ;
#141 = ORIENTED_EDGE ( 'NONE', *, *, #29, .T. ) ;
#142 = EDGE_LOOP ( 'NONE', ( #95 ) ) ;
#143 = DIRECTION ( 'NONE',  ( 0.0000000000000000000, 1.000000000000000000, 0.0000000000000000000 ) ) ;
#144 = CARTESIAN_POINT ( 'NONE',  ( 1.745740669421566678E-14, 2.287133668559320810E-33, 5.000000000000000000 ) ) ;
#145 = EDGE_CURVE ( 'NONE', #147, #147, #174, .T. ) ;
#146 = DIRECTION ( 'NONE',  ( 3.491481338843133355E-15, -1.224646799147353207E-16, 1.000000000000000000 ) ) ;
#147 = VERTEX_POINT ( 'NONE', #153 ) ;
#148 = ADVANCED_BREP_SHAPE_REPRESENTATION ( '55313', ( #63, #139, #166 ), #9 ) ;
#149 = DIRECTION ( 'NONE',  ( 3.491481338843133355E-15, -1.224646799147353207E-16, 1.000000000000000000 ) ) ;
#150 = AXIS2_PLACEMENT_3D ( 'NONE', #17, #52, #34 ) ;
#151 = CYLINDRICAL_SURFACE ( 'NONE', #154, 0.3049999999999992717 ) ;
#152 = PERSON_AND_ORGANIZATION ( #18, #67 ) ;
#153 = CARTESIAN_POINT ( 'NONE',  ( 1.745740669421566678E-14, 0.3049999999999989386, 5.000000000000000000 ) ) ;
#154 = AXIS2_PLACEMENT_3D ( 'NONE', #135, #1, #216 ) ;
#155 = APPROVAL ( #60, 'UNSPECIFIED' ) ;
#156 = DIRECTION ( 'NONE',  ( -3.157262203913512389E-31, -1.000000000000000000, -8.886903053159903346E-17 ) ) ;
#157 = VERTEX_POINT ( 'NONE', #107 ) ;
#158 = EDGE_LOOP ( 'NONE', ( #90 ) ) ;
#159 = EDGE_LOOP ( 'NONE', ( #113 ) ) ;
#160 = EDGE_LOOP ( 'NONE', ( #141 ) ) ;
#161 = VERTEX_POINT ( 'NONE', #102 ) ;
#162 = FACE_OUTER_BOUND ( 'NONE', #93, .T. ) ;
#163 = DIRECTION ( 'NONE',  ( -3.491481338843133355E-15, 1.224646799147353207E-16, -1.000000000000000000 ) ) ;
#164 = PLANE ( 'NONE',  #191 ) ;
#165 = FACE_OUTER_BOUND ( 'NONE', #35, .T. ) ;
#166 = AXIS2_PLACEMENT_3D ( 'NONE', #43, #14, #82 ) ;
#167 = LOCAL_TIME ( 7, 14, 27.00000000000000000, #31 ) ;
#168 = ADVANCED_FACE ( 'NONE', ( #114, #2 ), #83, .T. ) ;
#169 = APPROVAL_STATUS ( 'not_yet_approved' ) ;
#170 =( NAMED_UNIT ( * ) PLANE_ANGLE_UNIT ( ) SI_UNIT ( $, .RADIAN. ) );
#171 = CLOSED_SHELL ( 'NONE', ( #211, #168, #92, #187, #81 ) ) ;
#172 = DESIGN_CONTEXT ( 'detailed design', #10, 'design' ) ;
#173 = APPROVAL_ROLE ( '' ) ;
#174 = CIRCLE ( 'NONE', #13, 0.3049999999999995492 ) ;
#175 = CC_DESIGN_APPROVAL ( #199, ( #8 ) ) ;
#176 = FACE_BOUND ( 'NONE', #142, .T. ) ;
#177 = ORIENTED_EDGE ( 'NONE', *, *, #207, .T. ) ;
#178 = EDGE_LOOP ( 'NONE', ( #70 ) ) ;
#179 = AXIS2_PLACEMENT_3D ( 'NONE', #24, #53, #88 ) ;
#180 = APPROVAL_PERSON_ORGANIZATION ( #26, #155, #136 ) ;
#181 = DIRECTION ( 'NONE',  ( -3.491481338843133355E-15, 1.224646799147353207E-16, -1.000000000000000000 ) ) ;
#182 = FACE_OUTER_BOUND ( 'NONE', #78, .T. ) ;
#183 = PRODUCT_DEFINITION_SHAPE ( 'NONE', 'NONE',  #62 ) ;
#184 = DIRECTION ( 'NONE',  ( 0.0000000000000000000, 1.000000000000000000, 0.0000000000000000000 ) ) ;
#185 = DATE_TIME_ROLE ( 'classification_date' ) ;
#186 = APPROVAL_STATUS ( 'not_yet_approved' ) ;
#187 = ADVANCED_FACE ( 'NONE', ( #210, #176 ), #20, .T. ) ;
#188 = PERSON_AND_ORGANIZATION ( #18, #67 ) ;
#189 = PERSON_AND_ORGANIZATION ( #18, #67 ) ;
#190 = CIRCLE ( 'NONE', #125, 0.3999999999999989675 ) ;
#191 = AXIS2_PLACEMENT_3D ( 'NONE', #144, #146, #217 ) ;
#192 = UNCERTAINTY_MEASURE_WITH_UNIT (LENGTH_MEASURE( 1.000000000000000082E-05 ), #223, 'distance_accuracy_value', 'NONE');
#193 = VERTEX_POINT ( 'NONE', #22 ) ;
#194 = CARTESIAN_POINT ( 'NONE',  ( 6.398575597670451874E-16, -2.244318203168703922E-17, 0.1832624888034072863 ) ) ;
#195 = CLOSED_SHELL ( 'NONE', ( #202, #133, #3 ) ) ;
#196 = CARTESIAN_POINT ( 'NONE',  ( 1.745740669421566678E-14, -6.123233995736766282E-16, 5.000000000000000000 ) ) ;
#197 = APPROVAL_PERSON_ORGANIZATION ( #152, #68, #173 ) ;
#198 = DIRECTION ( 'NONE',  ( 4.275831445896958607E-31, 1.000000000000000000, 1.224646799147353207E-16 ) ) ;
#199 = APPROVAL ( #169, 'UNSPECIFIED' ) ;
#200 =( NAMED_UNIT ( * ) SI_UNIT ( $, .STERADIAN. ) SOLID_ANGLE_UNIT ( ) );
#201 = COORDINATED_UNIVERSAL_TIME_OFFSET ( 1, 0, .AHEAD. ) ;
#202 = ADVANCED_FACE ( 'NONE', ( #108 ), #36, .T. ) ;
#203 = PERSON_AND_ORGANIZATION ( #18, #67 ) ;
#204 = LOCAL_TIME ( 7, 14, 27.00000000000000000, #201 ) ;
#205 = PERSON_AND_ORGANIZATION_ROLE ( 'creator' ) ;
#206 = DIRECTION ( 'NONE',  ( 3.491481338843133355E-15, -1.224646799147353207E-16, 1.000000000000000000 ) ) ;
#207 = EDGE_CURVE ( 'NONE', #41, #41, #50, .T. ) ;
#208 = CARTESIAN_POINT ( 'NONE',  ( 1.999833191551273251E-14, -7.014470590506958562E-16, 5.727749907475940816 ) ) ;
#209 = DATE_AND_TIME ( #42, #204 ) ;
#210 = FACE_OUTER_BOUND ( 'NONE', #19, .T. ) ;
#211 = ADVANCED_FACE ( 'NONE', ( #214 ), #164, .F. ) ;
#212 = CARTESIAN_POINT ( 'NONE',  ( 1.999833191551273251E-14, 0.4999999999999963363, 5.727749907475940816 ) ) ;
#213 = CARTESIAN_POINT ( 'NONE',  ( 6.398575597670451874E-16, -2.244318203168703922E-17, 0.1832624888034072863 ) ) ;
#214 = FACE_OUTER_BOUND ( 'NONE', #158, .T. ) ;
#215 = DIRECTION ( 'NONE',  ( -3.491481338843133355E-15, 1.224646799147353207E-16, -1.000000000000000000 ) ) ;
#216 = DIRECTION ( 'NONE',  ( 4.275831445896958607E-31, 1.000000000000000000, 1.224646799147353207E-16 ) ) ;
#217 = DIRECTION ( 'NONE',  ( -4.275831445896958607E-31, -1.000000000000000000, -1.224646799147353207E-16 ) ) ;
#218 = EDGE_CURVE ( 'NONE', #161, #161, #75, .T. ) ;
#219 = DIRECTION ( 'NONE',  ( -4.275831445896958607E-31, -1.000000000000000000, -1.224646799147353207E-16 ) ) ;
#220 = ORIENTED_EDGE ( 'NONE', *, *, #207, .F. ) ;
#221 = CALENDAR_DATE ( 2021, 8, 10 ) ;
#222 = APPROVAL_ROLE ( '' ) ;
#223 =( LENGTH_UNIT ( ) NAMED_UNIT ( * ) SI_UNIT ( .MILLI., .METRE. ) );
ENDSEC;
END-ISO-10303-21;
