ISO-10303-21;
HEADER;
FILE_DESCRIPTION (( 'STEP AP203' ),
    '1' );
FILE_NAME ('55312.step',
    '2021-10-08T05:14:26',
    ( '' ),
    ( '' ),
    'SwSTEP 2.0',
    'SolidWorks 2019',
    '' );
FILE_SCHEMA (( 'CONFIG_CONTROL_DESIGN' ));
ENDSEC;

DATA;
#1 = APPROVAL_PERSON_ORGANIZATION ( #139, #3, #37 ) ;
#2 = CIRCLE ( 'NONE', #83, 0.2999999999999991562 ) ;
#3 = APPROVAL ( #87, 'UNSPECIFIED' ) ;
#4 = PERSON_AND_ORGANIZATION ( #195, #30 ) ;
#5 = FACE_OUTER_BOUND ( 'NONE', #51, .T. ) ;
#6 = CC_DESIGN_APPROVAL ( #3, ( #106 ) ) ;
#7 = PERSON_AND_ORGANIZATION_ROLE ( 'classification_officer' ) ;
#8 = EDGE_CURVE ( 'NONE', #125, #125, #174, .T. ) ;
#9 = DIRECTION ( 'NONE',  ( 3.491481338843133355E-15, -1.224646799147353207E-16, 1.000000000000000000 ) ) ;
#10 = DIRECTION ( 'NONE',  ( 4.275831445896958607E-31, 1.000000000000000000, 1.224646799147353207E-16 ) ) ;
#11 = DIRECTION ( 'NONE',  ( -3.491481338843133355E-15, 1.224646799147353207E-16, -1.000000000000000000 ) ) ;
#12 = DIRECTION ( 'NONE',  ( -3.491481338843133355E-15, 1.224646799147353207E-16, -1.000000000000000000 ) ) ;
#13 = EDGE_LOOP ( 'NONE', ( #28 ) ) ;
#14 = DIRECTION ( 'NONE',  ( -4.275831445896958607E-31, -1.000000000000000000, -1.224646799147353207E-16 ) ) ;
#15 = DIRECTION ( 'NONE',  ( 0.0000000000000000000, 1.000000000000000000, 0.0000000000000000000 ) ) ;
#16 =( LENGTH_UNIT ( ) NAMED_UNIT ( * ) SI_UNIT ( .MILLI., .METRE. ) );
#17 = APPLICATION_CONTEXT ( 'configuration controlled 3d designs of mechanical parts and assemblies' ) ;
#18 = DESIGN_CONTEXT ( 'detailed design', #109, 'design' ) ;
#19 = ADVANCED_FACE ( 'NONE', ( #29, #165 ), #98, .T. ) ;
#20 = AXIS2_PLACEMENT_3D ( 'NONE', #141, #124, #163 ) ;
#21 = AXIS2_PLACEMENT_3D ( 'NONE', #61, #9, #14 ) ;
#22 = APPROVAL_STATUS ( 'not_yet_approved' ) ;
#23 = CARTESIAN_POINT ( 'NONE',  ( 1.571166602479410010E-14, -5.510910596163088569E-16, 4.500000000000000000 ) ) ;
#24 = PERSON_AND_ORGANIZATION ( #195, #30 ) ;
#25 = CARTESIAN_POINT ( 'NONE',  ( 1.831774317484237095E-14, -6.424999411312006029E-16, 5.246410161513785475 ) ) ;
#26 = DIRECTION ( 'NONE',  ( -3.491481338843133355E-15, 1.224646799147353207E-16, -1.000000000000000000 ) ) ;
#27 = EDGE_LOOP ( 'NONE', ( #38 ) ) ;
#28 = ORIENTED_EDGE ( 'NONE', *, *, #8, .T. ) ;
#29 = FACE_OUTER_BOUND ( 'NONE', #96, .T. ) ;
#30 = ORGANIZATION ( 'UNSPECIFIED', 'UNSPECIFIED', '' ) ;
#31 =( NAMED_UNIT ( * ) PLANE_ANGLE_UNIT ( ) SI_UNIT ( $, .RADIAN. ) );
#32 =( GEOMETRIC_REPRESENTATION_CONTEXT ( 3 ) GLOBAL_UNCERTAINTY_ASSIGNED_CONTEXT ( ( #103 ) ) GLOBAL_UNIT_ASSIGNED_CONTEXT ( ( #16, #31, #107 ) ) REPRESENTATION_CONTEXT ( 'NONE', 'WORKASPACE' ) );
#33 = APPLICATION_PROTOCOL_DEFINITION ( 'international standard', 'config_control_design', 1994, #17 ) ;
#34 = CALENDAR_DATE ( 2021, 8, 10 ) ;
#35 = AXIS2_PLACEMENT_3D ( 'NONE', #25, #143, #149 ) ;
#36 = DIRECTION ( 'NONE',  ( -3.491481338843133355E-15, 1.224646799147353207E-16, -1.000000000000000000 ) ) ;
#37 = APPROVAL_ROLE ( '' ) ;
#38 = ORIENTED_EDGE ( 'NONE', *, *, #180, .T. ) ;
#39 = PRODUCT ( '55312', '55312', '', ( #66 ) ) ;
#40 = DIRECTION ( 'NONE',  ( 4.275831445896958607E-31, 1.000000000000000000, 1.224646799147353207E-16 ) ) ;
#41 = ORIENTED_EDGE ( 'NONE', *, *, #137, .T. ) ;
#42 = CC_DESIGN_DATE_AND_TIME_ASSIGNMENT ( #69, #146, ( #157 ) ) ;
#43 = ORIENTED_EDGE ( 'NONE', *, *, #54, .T. ) ;
#44 = SHAPE_DEFINITION_REPRESENTATION ( #119, #140 ) ;
#45 = COORDINATED_UNIVERSAL_TIME_OFFSET ( 1, 0, .AHEAD. ) ;
#46 = AXIS2_PLACEMENT_3D ( 'NONE', #169, #36, #162 ) ;
#47 = CALENDAR_DATE ( 2021, 8, 10 ) ;
#48 = DIRECTION ( 'NONE',  ( 0.0000000000000000000, 1.000000000000000000, 0.0000000000000000000 ) ) ;
#49 = PRODUCT_DEFINITION_FORMATION_WITH_SPECIFIED_SOURCE ( 'ANY', '', #39, .NOT_KNOWN. ) ;
#50 = FACE_BOUND ( 'NONE', #92, .T. ) ;
#51 = EDGE_LOOP ( 'NONE', ( #148 ) ) ;
#52 = VERTEX_POINT ( 'NONE', #94 ) ;
#53 = DIRECTION ( 'NONE',  ( -3.491481338843133355E-15, 1.224646799147353207E-16, -1.000000000000000000 ) ) ;
#54 = EDGE_CURVE ( 'NONE', #144, #144, #116, .T. ) ;
#55 = EDGE_LOOP ( 'NONE', ( #189 ) ) ;
#56 = EDGE_LOOP ( 'NONE', ( #134 ) ) ;
#57 = ADVANCED_FACE ( 'NONE', ( #76 ), #113, .T. ) ;
#58 = AXIS2_PLACEMENT_3D ( 'NONE', #72, #53, #10 ) ;
#59 = ADVANCED_FACE ( 'NONE', ( #50, #219 ), #173, .T. ) ;
#60 = AXIS2_PLACEMENT_3D ( 'NONE', #112, #121, #68 ) ;
#61 = CARTESIAN_POINT ( 'NONE',  ( 1.571166602479410010E-14, 2.249639673992772043E-33, 4.500000000000000000 ) ) ;
#62 = AXIS2_PLACEMENT_3D ( 'NONE', #200, #114, #90 ) ;
#63 = APPLICATION_PROTOCOL_DEFINITION ( 'international standard', 'config_control_design', 1994, #109 ) ;
#64 = PERSON_AND_ORGANIZATION_ROLE ( 'creator' ) ;
#65 = DIRECTION ( 'NONE',  ( 3.209883240645404620E-31, 1.000000000000000000, 9.035018104045902742E-17 ) ) ;
#66 = MECHANICAL_CONTEXT ( 'NONE', #17, 'mechanical' ) ;
#67 = CARTESIAN_POINT ( 'NONE',  ( 1.831774317484237095E-14, 0.4999999999999963363, 5.246410161513785475 ) ) ;
#68 = DIRECTION ( 'NONE',  ( -3.209883240645404620E-31, -1.000000000000000000, -9.035018104045902742E-17 ) ) ;
#69 = DATE_AND_TIME ( #130, #102 ) ;
#70 = ORIENTED_EDGE ( 'NONE', *, *, #8, .F. ) ;
#71 = CARTESIAN_POINT ( 'NONE',  ( 1.043952920314096936E-13, -3.661693929450586610E-15, 29.90000000000000213 ) ) ;
#72 = CARTESIAN_POINT ( 'NONE',  ( 0.0000000000000000000, 0.0000000000000000000, 0.0000000000000000000 ) ) ;
#73 = DATE_AND_TIME ( #220, #210 ) ;
#74 = EDGE_LOOP ( 'NONE', ( #216 ) ) ;
#75 = DATE_AND_TIME ( #192, #79 ) ;
#76 = FACE_OUTER_BOUND ( 'NONE', #74, .T. ) ;
#77 = SECURITY_CLASSIFICATION_LEVEL ( 'unclassified' ) ;
#78 = VERTEX_POINT ( 'NONE', #155 ) ;
#79 = LOCAL_TIME ( 7, 14, 26.00000000000000000, #45 ) ;
#80 = ADVANCED_FACE ( 'NONE', ( #95, #152 ), #183, .T. ) ;
#81 = APPROVAL ( #88, 'UNSPECIFIED' ) ;
#82 = AXIS2_PLACEMENT_3D ( 'NONE', #215, #206, #111 ) ;
#83 = AXIS2_PLACEMENT_3D ( 'NONE', #23, #11, #86 ) ;
#84 = DATE_AND_TIME ( #47, #194 ) ;
#85 = APPROVAL_ROLE ( '' ) ;
#86 = DIRECTION ( 'NONE',  ( 0.0000000000000000000, 1.000000000000000000, 0.0000000000000000000 ) ) ;
#87 = APPROVAL_STATUS ( 'not_yet_approved' ) ;
#88 = APPROVAL_STATUS ( 'not_yet_approved' ) ;
#89 = DATE_TIME_ROLE ( 'creation_date' ) ;
#90 = DIRECTION ( 'NONE',  ( 0.0000000000000000000, -1.000000000000000000, 0.0000000000000000000 ) ) ;
#91 = ADVANCED_FACE ( 'NONE', ( #193, #172 ), #176, .T. ) ;
#92 = EDGE_LOOP ( 'NONE', ( #218 ) ) ;
#93 = PERSON_AND_ORGANIZATION_ROLE ( 'creator' ) ;
#94 = CARTESIAN_POINT ( 'NONE',  ( 1.571166602479410010E-14, 0.2999999999999986011, 4.500000000000000000 ) ) ;
#95 = FACE_OUTER_BOUND ( 'NONE', #55, .T. ) ;
#96 = EDGE_LOOP ( 'NONE', ( #70 ) ) ;
#97 = CC_DESIGN_PERSON_AND_ORGANIZATION_ASSIGNMENT ( #123, #153, ( #49 ) ) ;
#98 = CYLINDRICAL_SURFACE ( 'NONE', #156, 0.4999999999999980571 ) ;
#99 = CARTESIAN_POINT ( 'NONE',  ( 1.047444401652940007E-13, 0.3999999999999953038, 30.00000000000000000 ) ) ;
#100 = ADVANCED_FACE ( 'NONE', ( #205 ), #198, .T. ) ;
#101 = AXIS2_PLACEMENT_3D ( 'NONE', #71, #212, #48 ) ;
#102 = LOCAL_TIME ( 7, 14, 26.00000000000000000, #166 ) ;
#103 = UNCERTAINTY_MEASURE_WITH_UNIT (LENGTH_MEASURE( 1.000000000000000082E-05 ), #16, 'distance_accuracy_value', 'NONE');
#104 = DIRECTION ( 'NONE',  ( 0.0000000000000000000, 1.000000000000000000, 0.0000000000000000000 ) ) ;
#105 = CC_DESIGN_APPROVAL ( #161, ( #49 ) ) ;
#106 = PRODUCT_DEFINITION ( 'UNKNOWN', '', #49, #18 ) ;
#107 =( NAMED_UNIT ( * ) SI_UNIT ( $, .STERADIAN. ) SOLID_ANGLE_UNIT ( ) );
#108 = DATE_AND_TIME ( #34, #197 ) ;
#109 = APPLICATION_CONTEXT ( 'configuration controlled 3d designs of mechanical parts and assemblies' ) ;
#110 = CARTESIAN_POINT ( 'NONE',  ( 6.293680915741428057E-16, -2.207526101477413572E-17, 0.1802581857082694583 ) ) ;
#111 = DIRECTION ( 'NONE',  ( -4.275831445896958607E-31, -1.000000000000000000, -1.224646799147353207E-16 ) ) ;
#112 = CARTESIAN_POINT ( 'NONE',  ( 6.293680915741428057E-16, -2.207526101477413572E-17, 0.1802581857082694583 ) ) ;
#113 = PLANE ( 'NONE',  #82 ) ;
#114 = DIRECTION ( 'NONE',  ( 3.491481338843133355E-15, -1.224646799147353207E-16, 1.000000000000000000 ) ) ;
#115 = PERSON_AND_ORGANIZATION ( #195, #30 ) ;
#116 = CIRCLE ( 'NONE', #46, 0.2999999999999991562 ) ;
#117 = PLANE ( 'NONE',  #21 ) ;
#118 = CIRCLE ( 'NONE', #221, 0.3999999999999989675 ) ;
#119 = PRODUCT_DEFINITION_SHAPE ( 'NONE', 'NONE',  #106 ) ;
#120 = EDGE_CURVE ( 'NONE', #188, #188, #167, .T. ) ;
#121 = DIRECTION ( 'NONE',  ( 3.491481338843133355E-15, -1.224646799147353207E-16, 1.000000000000000000 ) ) ;
#122 = PERSON_AND_ORGANIZATION_ROLE ( 'design_owner' ) ;
#123 = PERSON_AND_ORGANIZATION ( #195, #30 ) ;
#124 = DIRECTION ( 'NONE',  ( 0.0000000000000000000, 0.0000000000000000000, 1.000000000000000000 ) ) ;
#125 = VERTEX_POINT ( 'NONE', #67 ) ;
#126 = DIRECTION ( 'NONE',  ( 4.275831445896958607E-31, 1.000000000000000000, 1.224646799147353207E-16 ) ) ;
#127 = CC_DESIGN_APPROVAL ( #81, ( #157 ) ) ;
#128 = CARTESIAN_POINT ( 'NONE',  ( 1.571166602479410010E-14, 0.2999999999999986011, 4.500000000000000000 ) ) ;
#129 = DIRECTION ( 'NONE',  ( -3.491481338843133355E-15, 1.224646799147353207E-16, -1.000000000000000000 ) ) ;
#130 = CALENDAR_DATE ( 2021, 8, 10 ) ;
#131 = EDGE_LOOP ( 'NONE', ( #43 ) ) ;
#132 = APPROVAL_DATE_TIME ( #73, #81 ) ;
#133 = CARTESIAN_POINT ( 'NONE',  ( 0.0000000000000000000, 0.0000000000000000000, 0.0000000000000000000 ) ) ;
#134 = ORIENTED_EDGE ( 'NONE', *, *, #202, .F. ) ;
#135 = APPROVAL_PERSON_ORGANIZATION ( #164, #161, #85 ) ;
#136 = MANIFOLD_SOLID_BREP ( 'Corps-Déplacer/Copier1[1]', #177 ) ;
#137 = EDGE_CURVE ( 'NONE', #52, #52, #2, .T. ) ;
#138 = COORDINATED_UNIVERSAL_TIME_OFFSET ( 1, 0, .AHEAD. ) ;
#139 = PERSON_AND_ORGANIZATION ( #195, #30 ) ;
#140 = ADVANCED_BREP_SHAPE_REPRESENTATION ( '55312', ( #136, #142, #20 ), #32 ) ;
#141 = CARTESIAN_POINT ( 'NONE',  ( 0.0000000000000000000, 0.0000000000000000000, 0.0000000000000000000 ) ) ;
#142 = MANIFOLD_SOLID_BREP ( 'Corps-Déplacer/Copier1[2]', #211 ) ;
#143 = DIRECTION ( 'NONE',  ( -3.491481338843133355E-15, 1.224646799147353207E-16, -1.000000000000000000 ) ) ;
#144 = VERTEX_POINT ( 'NONE', #128 ) ;
#145 = CARTESIAN_POINT ( 'NONE',  ( 1.047444401652940007E-13, 2.999519565323652267E-33, 30.00000000000000000 ) ) ;
#146 = DATE_TIME_ROLE ( 'classification_date' ) ;
#147 = ORIENTED_EDGE ( 'NONE', *, *, #202, .T. ) ;
#148 = ORIENTED_EDGE ( 'NONE', *, *, #180, .F. ) ;
#149 = DIRECTION ( 'NONE',  ( 0.0000000000000000000, 1.000000000000000000, 0.0000000000000000000 ) ) ;
#150 = CC_DESIGN_PERSON_AND_ORGANIZATION_ASSIGNMENT ( #24, #64, ( #106 ) ) ;
#151 = CIRCLE ( 'NONE', #101, 0.4999999999999991673 ) ;
#152 = FACE_OUTER_BOUND ( 'NONE', #168, .T. ) ;
#153 = PERSON_AND_ORGANIZATION_ROLE ( 'design_supplier' ) ;
#154 = CC_DESIGN_PERSON_AND_ORGANIZATION_ASSIGNMENT ( #115, #93, ( #49 ) ) ;
#155 = CARTESIAN_POINT ( 'NONE',  ( 1.043952920314096936E-13, 0.4999999999999954481, 29.90000000000000213 ) ) ;
#156 = AXIS2_PLACEMENT_3D ( 'NONE', #133, #12, #126 ) ;
#157 = SECURITY_CLASSIFICATION ( '', '', #77 ) ;
#158 = ADVANCED_FACE ( 'NONE', ( #5 ), #213, .F. ) ;
#159 = AXIS2_PLACEMENT_3D ( 'NONE', #145, #201, #40 ) ;
#160 = APPROVAL_DATE_TIME ( #84, #3 ) ;
#161 = APPROVAL ( #22, 'UNSPECIFIED' ) ;
#162 = DIRECTION ( 'NONE',  ( 0.0000000000000000000, 1.000000000000000000, 0.0000000000000000000 ) ) ;
#163 = DIRECTION ( 'NONE',  ( 1.000000000000000000, 0.0000000000000000000, 0.0000000000000000000 ) ) ;
#164 = PERSON_AND_ORGANIZATION ( #195, #30 ) ;
#165 = FACE_OUTER_BOUND ( 'NONE', #199, .T. ) ;
#166 = COORDINATED_UNIVERSAL_TIME_OFFSET ( 1, 0, .AHEAD. ) ;
#167 = CIRCLE ( 'NONE', #186, 0.2999999999999989342 ) ;
#168 = EDGE_LOOP ( 'NONE', ( #41 ) ) ;
#169 = CARTESIAN_POINT ( 'NONE',  ( 1.571166602479410010E-14, -5.510910596163088569E-16, 4.500000000000000000 ) ) ;
#170 = COORDINATED_UNIVERSAL_TIME_OFFSET ( 1, 0, .AHEAD. ) ;
#171 = CARTESIAN_POINT ( 'NONE',  ( 1.047444401652940007E-13, -3.673940397442059178E-15, 30.00000000000000000 ) ) ;
#172 = FACE_BOUND ( 'NONE', #27, .T. ) ;
#173 = CONICAL_SURFACE ( 'NONE', #62, 0.4999999999999970024, 0.2617993877991431351 ) ;
#174 = CIRCLE ( 'NONE', #35, 0.4999999999999970024 ) ;
#175 = CC_DESIGN_PERSON_AND_ORGANIZATION_ASSIGNMENT ( #190, #7, ( #157 ) ) ;
#176 = CONICAL_SURFACE ( 'NONE', #208, 0.3999999999999989675, 0.7853981633974694843 ) ;
#177 = CLOSED_SHELL ( 'NONE', ( #187, #59, #19, #91, #158 ) ) ;
#178 = PRODUCT_RELATED_PRODUCT_CATEGORY ( 'detail', '', ( #39 ) ) ;
#179 = FACE_OUTER_BOUND ( 'NONE', #131, .T. ) ;
#180 = EDGE_CURVE ( 'NONE', #207, #207, #118, .T. ) ;
#181 = DIRECTION ( 'NONE',  ( -3.491481338843133355E-15, 1.224646799147353207E-16, -1.000000000000000000 ) ) ;
#182 = COORDINATED_UNIVERSAL_TIME_OFFSET ( 1, 0, .AHEAD. ) ;
#183 = CYLINDRICAL_SURFACE ( 'NONE', #58, 0.2999999999999990452 ) ;
#184 = CARTESIAN_POINT ( 'NONE',  ( 1.047444401652940007E-13, -3.673940397442059178E-15, 30.00000000000000000 ) ) ;
#185 = APPROVAL_ROLE ( '' ) ;
#186 = AXIS2_PLACEMENT_3D ( 'NONE', #110, #181, #65 ) ;
#187 = ADVANCED_FACE ( 'NONE', ( #179 ), #117, .F. ) ;
#188 = VERTEX_POINT ( 'NONE', #217 ) ;
#189 = ORIENTED_EDGE ( 'NONE', *, *, #120, .F. ) ;
#190 = PERSON_AND_ORGANIZATION ( #195, #30 ) ;
#191 = EDGE_LOOP ( 'NONE', ( #204 ) ) ;
#192 = CALENDAR_DATE ( 2021, 8, 10 ) ;
#193 = FACE_OUTER_BOUND ( 'NONE', #56, .T. ) ;
#194 = LOCAL_TIME ( 7, 14, 26.00000000000000000, #182 ) ;
#195 = PERSON ( 'UNSPECIFIED', 'UNSPECIFIED', 'UNSPECIFIED', ('UNSPECIFIED'), ('UNSPECIFIED'), ('UNSPECIFIED') ) ;
#196 = APPROVAL_PERSON_ORGANIZATION ( #203, #81, #185 ) ;
#197 = LOCAL_TIME ( 7, 14, 26.00000000000000000, #138 ) ;
#198 = CONICAL_SURFACE ( 'NONE', #60, 0.2999999999999989342, 1.029744258676649649 ) ;
#199 = EDGE_LOOP ( 'NONE', ( #147 ) ) ;
#200 = CARTESIAN_POINT ( 'NONE',  ( 1.831774317484237095E-14, -6.424999411312006029E-16, 5.246410161513785475 ) ) ;
#201 = DIRECTION ( 'NONE',  ( -3.491481338843133355E-15, 1.224646799147353207E-16, -1.000000000000000000 ) ) ;
#202 = EDGE_CURVE ( 'NONE', #78, #78, #151, .T. ) ;
#203 = PERSON_AND_ORGANIZATION ( #195, #30 ) ;
#204 = ORIENTED_EDGE ( 'NONE', *, *, #120, .T. ) ;
#205 = FACE_OUTER_BOUND ( 'NONE', #191, .T. ) ;
#206 = DIRECTION ( 'NONE',  ( 3.491481338843133355E-15, -1.224646799147353207E-16, 1.000000000000000000 ) ) ;
#207 = VERTEX_POINT ( 'NONE', #99 ) ;
#208 = AXIS2_PLACEMENT_3D ( 'NONE', #171, #129, #15 ) ;
#209 = CC_DESIGN_DATE_AND_TIME_ASSIGNMENT ( #108, #89, ( #106 ) ) ;
#210 = LOCAL_TIME ( 7, 14, 26.00000000000000000, #170 ) ;
#211 = CLOSED_SHELL ( 'NONE', ( #100, #80, #57 ) ) ;
#212 = DIRECTION ( 'NONE',  ( -3.491481338843133355E-15, 1.224646799147353207E-16, -1.000000000000000000 ) ) ;
#213 = PLANE ( 'NONE',  #159 ) ;
#214 = CC_DESIGN_PERSON_AND_ORGANIZATION_ASSIGNMENT ( #4, #122, ( #39 ) ) ;
#215 = CARTESIAN_POINT ( 'NONE',  ( 1.571166602479410010E-14, 2.249639673992772043E-33, 4.500000000000000000 ) ) ;
#216 = ORIENTED_EDGE ( 'NONE', *, *, #137, .F. ) ;
#217 = CARTESIAN_POINT ( 'NONE',  ( 6.293680915741429043E-16, 0.2999999999999989342, 0.1802581857082694861 ) ) ;
#218 = ORIENTED_EDGE ( 'NONE', *, *, #54, .F. ) ;
#219 = FACE_OUTER_BOUND ( 'NONE', #13, .T. ) ;
#220 = CALENDAR_DATE ( 2021, 8, 10 ) ;
#221 = AXIS2_PLACEMENT_3D ( 'NONE', #184, #26, #104 ) ;
#222 = APPROVAL_DATE_TIME ( #75, #161 ) ;
#223 = CC_DESIGN_SECURITY_CLASSIFICATION ( #157, ( #49 ) ) ;
ENDSEC;
END-ISO-10303-21;
