ISO-10303-21;
HEADER;
FILE_DESCRIPTION (( 'STEP AP203' ),
    '1' );
FILE_NAME ('55311.step',
    '2021-10-08T05:14:26',
    ( '' ),
    ( '' ),
    'SwSTEP 2.0',
    'SolidWorks 2019',
    '' );
FILE_SCHEMA (( 'CONFIG_CONTROL_DESIGN' ));
ENDSEC;

DATA;
#1 = EDGE_LOOP ( 'NONE', ( #103 ) ) ;
#2 = ORIENTED_EDGE ( 'NONE', *, *, #120, .F. ) ;
#3 = AXIS2_PLACEMENT_3D ( 'NONE', #79, #58, #5 ) ;
#4 = VERTEX_POINT ( 'NONE', #143 ) ;
#5 = DIRECTION ( 'NONE',  ( -4.275831445896958607E-31, -1.000000000000000000, -1.224646799147353207E-16 ) ) ;
#6 = CLOSED_SHELL ( 'NONE', ( #48, #138, #200 ) ) ;
#7 = PERSON_AND_ORGANIZATION ( #159, #86 ) ;
#8 = ADVANCED_FACE ( 'NONE', ( #72, #193 ), #80, .T. ) ;
#9 = CALENDAR_DATE ( 2021, 8, 10 ) ;
#10 = APPLICATION_CONTEXT ( 'configuration controlled 3d designs of mechanical parts and assemblies' ) ;
#11 = PERSON_AND_ORGANIZATION ( #159, #86 ) ;
#12 = CARTESIAN_POINT ( 'NONE',  ( 1.571166602479410010E-14, -5.510910596163088569E-16, 4.500000000000000000 ) ) ;
#13 = ADVANCED_FACE ( 'NONE', ( #51 ), #15, .F. ) ;
#14 = CIRCLE ( 'NONE', #85, 0.2949999999999989297 ) ;
#15 = PLANE ( 'NONE',  #204 ) ;
#16 = DATE_AND_TIME ( #130, #164 ) ;
#17 = DIRECTION ( 'NONE',  ( -3.264288041334309776E-31, -1.000000000000000000, -9.188154004114477344E-17 ) ) ;
#18 = EDGE_CURVE ( 'NONE', #194, #194, #111, .T. ) ;
#19 = AXIS2_PLACEMENT_3D ( 'NONE', #125, #196, #107 ) ;
#20 = CC_DESIGN_APPROVAL ( #185, ( #212 ) ) ;
#21 = VERTEX_POINT ( 'NONE', #88 ) ;
#22 = CARTESIAN_POINT ( 'NONE',  ( 6.188786233812405226E-16, 0.2949999999999989297, 0.1772538826131316581 ) ) ;
#23 = COORDINATED_UNIVERSAL_TIME_OFFSET ( 1, 0, .AHEAD. ) ;
#24 = ORIENTED_EDGE ( 'NONE', *, *, #18, .F. ) ;
#25 = APPLICATION_PROTOCOL_DEFINITION ( 'international standard', 'config_control_design', 1994, #10 ) ;
#26 = CIRCLE ( 'NONE', #95, 0.4999999999999970024 ) ;
#27 = PERSON_AND_ORGANIZATION_ROLE ( 'classification_officer' ) ;
#28 = AXIS2_PLACEMENT_3D ( 'NONE', #94, #98, #44 ) ;
#29 = PLANE ( 'NONE',  #3 ) ;
#30 = AXIS2_PLACEMENT_3D ( 'NONE', #66, #139, #78 ) ;
#31 = APPROVAL_ROLE ( '' ) ;
#32 = DIRECTION ( 'NONE',  ( -3.491481338843133355E-15, 1.224646799147353207E-16, -1.000000000000000000 ) ) ;
#33 = APPROVAL_PERSON_ORGANIZATION ( #89, #105, #214 ) ;
#34 = PERSON_AND_ORGANIZATION_ROLE ( 'design_supplier' ) ;
#35 = APPROVAL ( #223, 'UNSPECIFIED' ) ;
#36 = EDGE_LOOP ( 'NONE', ( #56 ) ) ;
#37 = CARTESIAN_POINT ( 'NONE',  ( 1.047444401652940007E-13, 0.3999999999999953038, 30.00000000000000000 ) ) ;
#38 = CARTESIAN_POINT ( 'NONE',  ( 1.571166602479410010E-14, 0.2949999999999991518, 4.500000000000000000 ) ) ;
#39 = APPLICATION_PROTOCOL_DEFINITION ( 'international standard', 'config_control_design', 1994, #221 ) ;
#40 = CIRCLE ( 'NONE', #219, 0.4999999999999991673 ) ;
#41 = CC_DESIGN_DATE_AND_TIME_ASSIGNMENT ( #207, #213, ( #178 ) ) ;
#42 = CARTESIAN_POINT ( 'NONE',  ( 1.838289510359357922E-14, -6.447851631690729237E-16, 5.265070415551631022 ) ) ;
#43 = EDGE_CURVE ( 'NONE', #110, #110, #14, .T. ) ;
#44 = DIRECTION ( 'NONE',  ( 4.275831445896958607E-31, 1.000000000000000000, 1.224646799147353207E-16 ) ) ;
#45 = CARTESIAN_POINT ( 'NONE',  ( 1.571166602479410010E-14, -5.510910596163088569E-16, 4.500000000000000000 ) ) ;
#46 = FACE_OUTER_BOUND ( 'NONE', #1, .T. ) ;
#47 = SHAPE_DEFINITION_REPRESENTATION ( #113, #222 ) ;
#48 = ADVANCED_FACE ( 'NONE', ( #99 ), #101, .T. ) ;
#49 = CC_DESIGN_APPROVAL ( #105, ( #178 ) ) ;
#50 = UNCERTAINTY_MEASURE_WITH_UNIT (LENGTH_MEASURE( 1.000000000000000082E-05 ), #197, 'distance_accuracy_value', 'NONE');
#51 = FACE_OUTER_BOUND ( 'NONE', #160, .T. ) ;
#52 = DIRECTION ( 'NONE',  ( 1.000000000000000000, 0.0000000000000000000, 0.0000000000000000000 ) ) ;
#53 = ORIENTED_EDGE ( 'NONE', *, *, #120, .T. ) ;
#54 = PERSON_AND_ORGANIZATION_ROLE ( 'creator' ) ;
#55 = ORIENTED_EDGE ( 'NONE', *, *, #203, .T. ) ;
#56 = ORIENTED_EDGE ( 'NONE', *, *, #90, .T. ) ;
#57 = PERSON_AND_ORGANIZATION ( #159, #86 ) ;
#58 = DIRECTION ( 'NONE',  ( 3.491481338843133355E-15, -1.224646799147353207E-16, 1.000000000000000000 ) ) ;
#59 = ORIENTED_EDGE ( 'NONE', *, *, #203, .F. ) ;
#60 = PERSON_AND_ORGANIZATION ( #159, #86 ) ;
#61 = MANIFOLD_SOLID_BREP ( 'Corps-Déplacer/Copier1[2]', #6 ) ;
#62 = DIRECTION ( 'NONE',  ( 4.275831445896958607E-31, 1.000000000000000000, 1.224646799147353207E-16 ) ) ;
#63 = DIRECTION ( 'NONE',  ( 3.491481338843133355E-15, -1.224646799147353207E-16, 1.000000000000000000 ) ) ;
#64 = LOCAL_TIME ( 7, 14, 26.00000000000000000, #145 ) ;
#65 = FACE_OUTER_BOUND ( 'NONE', #156, .T. ) ;
#66 = CARTESIAN_POINT ( 'NONE',  ( 0.0000000000000000000, 0.0000000000000000000, 0.0000000000000000000 ) ) ;
#67 = DIRECTION ( 'NONE',  ( 0.0000000000000000000, 1.000000000000000000, 0.0000000000000000000 ) ) ;
#68 = ORIENTED_EDGE ( 'NONE', *, *, #18, .T. ) ;
#69 = FACE_OUTER_BOUND ( 'NONE', #174, .T. ) ;
#70 = DATE_AND_TIME ( #211, #205 ) ;
#71 = ORIENTED_EDGE ( 'NONE', *, *, #43, .T. ) ;
#72 = FACE_OUTER_BOUND ( 'NONE', #210, .T. ) ;
#73 = DATE_AND_TIME ( #9, #97 ) ;
#74 = ADVANCED_FACE ( 'NONE', ( #155, #65 ), #215, .T. ) ;
#75 = PERSON_AND_ORGANIZATION ( #159, #86 ) ;
#76 = CC_DESIGN_SECURITY_CLASSIFICATION ( #127, ( #212 ) ) ;
#77 = CC_DESIGN_DATE_AND_TIME_ASSIGNMENT ( #16, #133, ( #127 ) ) ;
#78 = DIRECTION ( 'NONE',  ( 4.275831445896958607E-31, 1.000000000000000000, 1.224646799147353207E-16 ) ) ;
#79 = CARTESIAN_POINT ( 'NONE',  ( 1.571166602479410010E-14, 2.212145679426229777E-33, 4.500000000000000000 ) ) ;
#80 = CONICAL_SURFACE ( 'NONE', #19, 0.3999999999999989675, 0.7853981633974694843 ) ;
#81 = CC_DESIGN_PERSON_AND_ORGANIZATION_ASSIGNMENT ( #123, #108, ( #178 ) ) ;
#82 = DIRECTION ( 'NONE',  ( 3.491481338843133355E-15, -1.224646799147353207E-16, 1.000000000000000000 ) ) ;
#83 = CC_DESIGN_APPROVAL ( #35, ( #127 ) ) ;
#84 = APPROVAL_ROLE ( '' ) ;
#85 = AXIS2_PLACEMENT_3D ( 'NONE', #152, #184, #168 ) ;
#86 = ORGANIZATION ( 'UNSPECIFIED', 'UNSPECIFIED', '' ) ;
#87 =( NAMED_UNIT ( * ) PLANE_ANGLE_UNIT ( ) SI_UNIT ( $, .RADIAN. ) );
#88 = CARTESIAN_POINT ( 'NONE',  ( 1.571166602479410010E-14, 0.2949999999999991518, 4.500000000000000000 ) ) ;
#89 = PERSON_AND_ORGANIZATION ( #159, #86 ) ;
#90 = EDGE_CURVE ( 'NONE', #176, #176, #201, .T. ) ;
#91 = PLANE ( 'NONE',  #102 ) ;
#92 = SECURITY_CLASSIFICATION_LEVEL ( 'unclassified' ) ;
#93 = DIRECTION ( 'NONE',  ( 0.0000000000000000000, 1.000000000000000000, 0.0000000000000000000 ) ) ;
#94 = CARTESIAN_POINT ( 'NONE',  ( 0.0000000000000000000, 0.0000000000000000000, 0.0000000000000000000 ) ) ;
#95 = AXIS2_PLACEMENT_3D ( 'NONE', #42, #114, #166 ) ;
#96 = CLOSED_SHELL ( 'NONE', ( #186, #74, #195, #8, #13 ) ) ;
#97 = LOCAL_TIME ( 7, 14, 26.00000000000000000, #23 ) ;
#98 = DIRECTION ( 'NONE',  ( -3.491481338843133355E-15, 1.224646799147353207E-16, -1.000000000000000000 ) ) ;
#99 = FACE_OUTER_BOUND ( 'NONE', #208, .T. ) ;
#100 = DIRECTION ( 'NONE',  ( -4.275831445896958607E-31, -1.000000000000000000, -1.224646799147353207E-16 ) ) ;
#101 = CONICAL_SURFACE ( 'NONE', #218, 0.2949999999999989297, 1.029744258676649649 ) ;
#102 = AXIS2_PLACEMENT_3D ( 'NONE', #153, #63, #100 ) ;
#103 = ORIENTED_EDGE ( 'NONE', *, *, #43, .F. ) ;
#104 = COORDINATED_UNIVERSAL_TIME_OFFSET ( 1, 0, .AHEAD. ) ;
#105 = APPROVAL ( #140, 'UNSPECIFIED' ) ;
#106 = CYLINDRICAL_SURFACE ( 'NONE', #30, 0.4999999999999980571 ) ;
#107 = DIRECTION ( 'NONE',  ( 0.0000000000000000000, 1.000000000000000000, 0.0000000000000000000 ) ) ;
#108 = PERSON_AND_ORGANIZATION_ROLE ( 'creator' ) ;
#109 = EDGE_LOOP ( 'NONE', ( #2 ) ) ;
#110 = VERTEX_POINT ( 'NONE', #22 ) ;
#111 = CIRCLE ( 'NONE', #119, 0.2949999999999997069 ) ;
#112 = CALENDAR_DATE ( 2021, 8, 10 ) ;
#113 = PRODUCT_DEFINITION_SHAPE ( 'NONE', 'NONE',  #178 ) ;
#114 = DIRECTION ( 'NONE',  ( -3.491481338843133355E-15, 1.224646799147353207E-16, -1.000000000000000000 ) ) ;
#115 = COORDINATED_UNIVERSAL_TIME_OFFSET ( 1, 0, .AHEAD. ) ;
#116 = DIRECTION ( 'NONE',  ( 3.491481338843133355E-15, -1.224646799147353207E-16, 1.000000000000000000 ) ) ;
#117 = CYLINDRICAL_SURFACE ( 'NONE', #28, 0.2949999999999993183 ) ;
#118 = CC_DESIGN_PERSON_AND_ORGANIZATION_ASSIGNMENT ( #75, #27, ( #127 ) ) ;
#119 = AXIS2_PLACEMENT_3D ( 'NONE', #45, #32, #135 ) ;
#120 = EDGE_CURVE ( 'NONE', #21, #21, #137, .T. ) ;
#121 = PERSON_AND_ORGANIZATION_ROLE ( 'design_owner' ) ;
#122 = PERSON_AND_ORGANIZATION ( #159, #86 ) ;
#123 = PERSON_AND_ORGANIZATION ( #159, #86 ) ;
#124 = EDGE_CURVE ( 'NONE', #4, #4, #26, .T. ) ;
#125 = CARTESIAN_POINT ( 'NONE',  ( 1.047444401652940007E-13, -3.673940397442059178E-15, 30.00000000000000000 ) ) ;
#126 = CARTESIAN_POINT ( 'NONE',  ( 0.0000000000000000000, 0.0000000000000000000, 0.0000000000000000000 ) ) ;
#127 = SECURITY_CLASSIFICATION ( '', '', #92 ) ;
#128 = LOCAL_TIME ( 7, 14, 26.00000000000000000, #115 ) ;
#129 = MANIFOLD_SOLID_BREP ( 'Corps-Déplacer/Copier1[1]', #96 ) ;
#130 = CALENDAR_DATE ( 2021, 8, 10 ) ;
#131 = CARTESIAN_POINT ( 'NONE',  ( 1.047444401652940007E-13, 2.999519565323652267E-33, 30.00000000000000000 ) ) ;
#132 = CARTESIAN_POINT ( 'NONE',  ( 1.838289510359357922E-14, -6.447851631690729237E-16, 5.265070415551631022 ) ) ;
#133 = DATE_TIME_ROLE ( 'classification_date' ) ;
#134 =( GEOMETRIC_REPRESENTATION_CONTEXT ( 3 ) GLOBAL_UNCERTAINTY_ASSIGNED_CONTEXT ( ( #50 ) ) GLOBAL_UNIT_ASSIGNED_CONTEXT ( ( #197, #87, #144 ) ) REPRESENTATION_CONTEXT ( 'NONE', 'WORKASPACE' ) );
#135 = DIRECTION ( 'NONE',  ( 0.0000000000000000000, 1.000000000000000000, 0.0000000000000000000 ) ) ;
#136 = ORIENTED_EDGE ( 'NONE', *, *, #124, .T. ) ;
#137 = CIRCLE ( 'NONE', #154, 0.2949999999999997069 ) ;
#138 = ADVANCED_FACE ( 'NONE', ( #46, #202 ), #117, .T. ) ;
#139 = DIRECTION ( 'NONE',  ( -3.491481338843133355E-15, 1.224646799147353207E-16, -1.000000000000000000 ) ) ;
#140 = APPROVAL_STATUS ( 'not_yet_approved' ) ;
#141 = FACE_OUTER_BOUND ( 'NONE', #171, .T. ) ;
#142 = EDGE_LOOP ( 'NONE', ( #53 ) ) ;
#143 = CARTESIAN_POINT ( 'NONE',  ( 1.838289510359357922E-14, 0.4999999999999963363, 5.265070415551631022 ) ) ;
#144 =( NAMED_UNIT ( * ) SI_UNIT ( $, .STERADIAN. ) SOLID_ANGLE_UNIT ( ) );
#145 = COORDINATED_UNIVERSAL_TIME_OFFSET ( 1, 0, .AHEAD. ) ;
#146 = APPROVAL_DATE_TIME ( #73, #105 ) ;
#147 = DIRECTION ( 'NONE',  ( -3.491481338843133355E-15, 1.224646799147353207E-16, -1.000000000000000000 ) ) ;
#148 = COORDINATED_UNIVERSAL_TIME_OFFSET ( 1, 0, .AHEAD. ) ;
#149 = DIRECTION ( 'NONE',  ( -3.491481338843133355E-15, 1.224646799147353207E-16, -1.000000000000000000 ) ) ;
#150 = PRODUCT ( '55311', '55311', '', ( #161 ) ) ;
#151 = AXIS2_PLACEMENT_3D ( 'NONE', #126, #191, #52 ) ;
#152 = CARTESIAN_POINT ( 'NONE',  ( 6.188786233812404240E-16, -2.170733999786123531E-17, 0.1772538826131316303 ) ) ;
#153 = CARTESIAN_POINT ( 'NONE',  ( 1.571166602479410010E-14, 2.212145679426229777E-33, 4.500000000000000000 ) ) ;
#154 = AXIS2_PLACEMENT_3D ( 'NONE', #12, #149, #217 ) ;
#155 = FACE_BOUND ( 'NONE', #109, .T. ) ;
#156 = EDGE_LOOP ( 'NONE', ( #136 ) ) ;
#157 = APPROVAL_DATE_TIME ( #70, #185 ) ;
#158 = CARTESIAN_POINT ( 'NONE',  ( 1.043952920314096936E-13, 0.4999999999999954481, 29.90000000000000213 ) ) ;
#159 = PERSON ( 'UNSPECIFIED', 'UNSPECIFIED', 'UNSPECIFIED', ('UNSPECIFIED'), ('UNSPECIFIED'), ('UNSPECIFIED') ) ;
#160 = EDGE_LOOP ( 'NONE', ( #188 ) ) ;
#161 = MECHANICAL_CONTEXT ( 'NONE', #221, 'mechanical' ) ;
#162 = DIRECTION ( 'NONE',  ( -3.491481338843133355E-15, 1.224646799147353207E-16, -1.000000000000000000 ) ) ;
#163 = APPROVAL_DATE_TIME ( #180, #35 ) ;
#164 = LOCAL_TIME ( 7, 14, 26.00000000000000000, #148 ) ;
#165 = CARTESIAN_POINT ( 'NONE',  ( 1.047444401652940007E-13, -3.673940397442059178E-15, 30.00000000000000000 ) ) ;
#166 = DIRECTION ( 'NONE',  ( 0.0000000000000000000, 1.000000000000000000, 0.0000000000000000000 ) ) ;
#167 = APPROVAL_PERSON_ORGANIZATION ( #60, #185, #84 ) ;
#168 = DIRECTION ( 'NONE',  ( 3.264288041334309776E-31, 1.000000000000000000, 9.188154004114477344E-17 ) ) ;
#169 = CARTESIAN_POINT ( 'NONE',  ( 6.188786233812404240E-16, -2.170733999786123531E-17, 0.1772538826131316303 ) ) ;
#170 = EDGE_LOOP ( 'NONE', ( #68 ) ) ;
#171 = EDGE_LOOP ( 'NONE', ( #206 ) ) ;
#172 = VERTEX_POINT ( 'NONE', #158 ) ;
#173 = AXIS2_PLACEMENT_3D ( 'NONE', #132, #116, #179 ) ;
#174 = EDGE_LOOP ( 'NONE', ( #55 ) ) ;
#175 = EDGE_LOOP ( 'NONE', ( #24 ) ) ;
#176 = VERTEX_POINT ( 'NONE', #37 ) ;
#177 = CALENDAR_DATE ( 2021, 8, 10 ) ;
#178 = PRODUCT_DEFINITION ( 'UNKNOWN', '', #212, #187 ) ;
#179 = DIRECTION ( 'NONE',  ( 0.0000000000000000000, -1.000000000000000000, 0.0000000000000000000 ) ) ;
#180 = DATE_AND_TIME ( #112, #128 ) ;
#181 = PRODUCT_RELATED_PRODUCT_CATEGORY ( 'detail', '', ( #150 ) ) ;
#182 = APPROVAL_PERSON_ORGANIZATION ( #11, #35, #31 ) ;
#183 = FACE_OUTER_BOUND ( 'NONE', #142, .T. ) ;
#184 = DIRECTION ( 'NONE',  ( -3.491481338843133355E-15, 1.224646799147353207E-16, -1.000000000000000000 ) ) ;
#185 = APPROVAL ( #189, 'UNSPECIFIED' ) ;
#186 = ADVANCED_FACE ( 'NONE', ( #183 ), #91, .F. ) ;
#187 = DESIGN_CONTEXT ( 'detailed design', #10, 'design' ) ;
#188 = ORIENTED_EDGE ( 'NONE', *, *, #90, .F. ) ;
#189 = APPROVAL_STATUS ( 'not_yet_approved' ) ;
#190 = AXIS2_PLACEMENT_3D ( 'NONE', #165, #162, #93 ) ;
#191 = DIRECTION ( 'NONE',  ( 0.0000000000000000000, 0.0000000000000000000, 1.000000000000000000 ) ) ;
#192 = CARTESIAN_POINT ( 'NONE',  ( 1.043952920314096936E-13, -3.661693929450586610E-15, 29.90000000000000213 ) ) ;
#193 = FACE_BOUND ( 'NONE', #36, .T. ) ;
#194 = VERTEX_POINT ( 'NONE', #38 ) ;
#195 = ADVANCED_FACE ( 'NONE', ( #141, #69 ), #106, .T. ) ;
#196 = DIRECTION ( 'NONE',  ( -3.491481338843133355E-15, 1.224646799147353207E-16, -1.000000000000000000 ) ) ;
#197 =( LENGTH_UNIT ( ) NAMED_UNIT ( * ) SI_UNIT ( .MILLI., .METRE. ) );
#198 = FACE_OUTER_BOUND ( 'NONE', #175, .T. ) ;
#199 = DIRECTION ( 'NONE',  ( -3.491481338843133355E-15, 1.224646799147353207E-16, -1.000000000000000000 ) ) ;
#200 = ADVANCED_FACE ( 'NONE', ( #198 ), #29, .T. ) ;
#201 = CIRCLE ( 'NONE', #190, 0.3999999999999989675 ) ;
#202 = FACE_OUTER_BOUND ( 'NONE', #170, .T. ) ;
#203 = EDGE_CURVE ( 'NONE', #172, #172, #40, .T. ) ;
#204 = AXIS2_PLACEMENT_3D ( 'NONE', #131, #199, #62 ) ;
#205 = LOCAL_TIME ( 7, 14, 26.00000000000000000, #104 ) ;
#206 = ORIENTED_EDGE ( 'NONE', *, *, #124, .F. ) ;
#207 = DATE_AND_TIME ( #177, #64 ) ;
#208 = EDGE_LOOP ( 'NONE', ( #71 ) ) ;
#209 = CC_DESIGN_PERSON_AND_ORGANIZATION_ASSIGNMENT ( #57, #54, ( #212 ) ) ;
#210 = EDGE_LOOP ( 'NONE', ( #59 ) ) ;
#211 = CALENDAR_DATE ( 2021, 8, 10 ) ;
#212 = PRODUCT_DEFINITION_FORMATION_WITH_SPECIFIED_SOURCE ( 'ANY', '', #150, .NOT_KNOWN. ) ;
#213 = DATE_TIME_ROLE ( 'creation_date' ) ;
#214 = APPROVAL_ROLE ( '' ) ;
#215 = CONICAL_SURFACE ( 'NONE', #173, 0.4999999999999970024, 0.2617993877991425244 ) ;
#216 = CC_DESIGN_PERSON_AND_ORGANIZATION_ASSIGNMENT ( #122, #34, ( #212 ) ) ;
#217 = DIRECTION ( 'NONE',  ( 0.0000000000000000000, 1.000000000000000000, 0.0000000000000000000 ) ) ;
#218 = AXIS2_PLACEMENT_3D ( 'NONE', #169, #82, #17 ) ;
#219 = AXIS2_PLACEMENT_3D ( 'NONE', #192, #147, #67 ) ;
#220 = CC_DESIGN_PERSON_AND_ORGANIZATION_ASSIGNMENT ( #7, #121, ( #150 ) ) ;
#221 = APPLICATION_CONTEXT ( 'configuration controlled 3d designs of mechanical parts and assemblies' ) ;
#222 = ADVANCED_BREP_SHAPE_REPRESENTATION ( '55311', ( #129, #61, #151 ), #134 ) ;
#223 = APPROVAL_STATUS ( 'not_yet_approved' ) ;
ENDSEC;
END-ISO-10303-21;
