ISO-10303-21;
HEADER;
FILE_DESCRIPTION (( 'STEP AP203' ),
    '1' );
FILE_NAME ('55310.step',
    '2021-10-08T05:14:25',
    ( '' ),
    ( '' ),
    'SwSTEP 2.0',
    'SolidWorks 2019',
    '' );
FILE_SCHEMA (( 'CONFIG_CONTROL_DESIGN' ));
ENDSEC;

DATA;
#1 = APPROVAL_STATUS ( 'not_yet_approved' ) ;
#2 = ADVANCED_FACE ( 'NONE', ( #52, #88 ), #146, .T. ) ;
#3 = CARTESIAN_POINT ( 'NONE',  ( 1.571166602479410325E-14, 0.2899999999999991473, 4.500000000000000888 ) ) ;
#4 = CIRCLE ( 'NONE', #47, 0.2899999999999997025 ) ;
#5 = PRODUCT_DEFINITION_FORMATION_WITH_SPECIFIED_SOURCE ( 'ANY', '', #31, .NOT_KNOWN. ) ;
#6 = APPROVAL ( #1, 'UNSPECIFIED' ) ;
#7 = APPROVAL ( #48, 'UNSPECIFIED' ) ;
#8 = FACE_OUTER_BOUND ( 'NONE', #214, .T. ) ;
#9 = ADVANCED_BREP_SHAPE_REPRESENTATION ( '55310', ( #85, #10, #36 ), #115 ) ;
#10 = MANIFOLD_SOLID_BREP ( 'Corps-Déplacer/Copier1[2]', #18 ) ;
#11 = PERSON_AND_ORGANIZATION ( #108, #71 ) ;
#12 = COORDINATED_UNIVERSAL_TIME_OFFSET ( 1, 0, .AHEAD. ) ;
#13 = CARTESIAN_POINT ( 'NONE',  ( 1.043952920314096936E-13, -3.661693929450586610E-15, 29.90000000000000213 ) ) ;
#14 = ADVANCED_FACE ( 'NONE', ( #206 ), #218, .T. ) ;
#15 = APPROVAL_DATE_TIME ( #134, #210 ) ;
#16 = DIRECTION ( 'NONE',  ( 3.491481338843133355E-15, -1.224646799147353207E-16, 1.000000000000000000 ) ) ;
#17 = PERSON_AND_ORGANIZATION ( #108, #71 ) ;
#18 = CLOSED_SHELL ( 'NONE', ( #110, #213, #14 ) ) ;
#19 = APPROVAL_PERSON_ORGANIZATION ( #11, #6, #191 ) ;
#20 = PRODUCT_DEFINITION ( 'UNKNOWN', '', #5, #92 ) ;
#21 = ORIENTED_EDGE ( 'NONE', *, *, #53, .F. ) ;
#22 = EDGE_LOOP ( 'NONE', ( #21 ) ) ;
#23 = CC_DESIGN_PERSON_AND_ORGANIZATION_ASSIGNMENT ( #17, #67, ( #20 ) ) ;
#24 = CARTESIAN_POINT ( 'NONE',  ( 1.043952920314096936E-13, 0.4999999999999954481, 29.90000000000000213 ) ) ;
#25 = APPROVAL_ROLE ( '' ) ;
#26 = DIRECTION ( 'NONE',  ( -3.491481338843133355E-15, 1.224646799147353207E-16, -1.000000000000000000 ) ) ;
#27 = VERTEX_POINT ( 'NONE', #49 ) ;
#28 = CC_DESIGN_PERSON_AND_ORGANIZATION_ASSIGNMENT ( #29, #153, ( #5 ) ) ;
#29 = PERSON_AND_ORGANIZATION ( #108, #71 ) ;
#30 = CALENDAR_DATE ( 2021, 8, 10 ) ;
#31 = PRODUCT ( '55310', '55310', '', ( #105 ) ) ;
#32 = AXIS2_PLACEMENT_3D ( 'NONE', #207, #123, #97 ) ;
#33 = ORIENTED_EDGE ( 'NONE', *, *, #124, .T. ) ;
#34 = EDGE_CURVE ( 'NONE', #77, #77, #197, .T. ) ;
#35 = ORIENTED_EDGE ( 'NONE', *, *, #70, .T. ) ;
#36 = AXIS2_PLACEMENT_3D ( 'NONE', #202, #66, #164 ) ;
#37 = DIRECTION ( 'NONE',  ( 0.0000000000000000000, 1.000000000000000000, 0.0000000000000000000 ) ) ;
#38 = DIRECTION ( 'NONE',  ( -3.491481338843133355E-15, 1.224646799147353207E-16, -1.000000000000000000 ) ) ;
#39 = AXIS2_PLACEMENT_3D ( 'NONE', #13, #216, #183 ) ;
#40 = COORDINATED_UNIVERSAL_TIME_OFFSET ( 1, 0, .AHEAD. ) ;
#41 = FACE_OUTER_BOUND ( 'NONE', #114, .T. ) ;
#42 = APPLICATION_PROTOCOL_DEFINITION ( 'international standard', 'config_control_design', 1994, #62 ) ;
#43 = DIRECTION ( 'NONE',  ( 3.491481338843133355E-15, -1.224646799147353207E-16, 1.000000000000000000 ) ) ;
#44 = DIRECTION ( 'NONE',  ( -4.275831445896958607E-31, -1.000000000000000000, -1.224646799147353207E-16 ) ) ;
#45 = CC_DESIGN_DATE_AND_TIME_ASSIGNMENT ( #98, #182, ( #20 ) ) ;
#46 = DIRECTION ( 'NONE',  ( -3.491481338843133355E-15, 1.224646799147353207E-16, -1.000000000000000000 ) ) ;
#47 = AXIS2_PLACEMENT_3D ( 'NONE', #152, #69, #139 ) ;
#48 = APPROVAL_STATUS ( 'not_yet_approved' ) ;
#49 = CARTESIAN_POINT ( 'NONE',  ( 1.571166602479410325E-14, 0.2899999999999991473, 4.500000000000000888 ) ) ;
#50 = AXIS2_PLACEMENT_3D ( 'NONE', #179, #38, #118 ) ;
#51 = LOCAL_TIME ( 7, 14, 25.00000000000000000, #109 ) ;
#52 = FACE_BOUND ( 'NONE', #127, .T. ) ;
#53 = EDGE_CURVE ( 'NONE', #78, #78, #107, .T. ) ;
#54 = CLOSED_SHELL ( 'NONE', ( #113, #2, #104, #176, #65 ) ) ;
#55 = EDGE_LOOP ( 'NONE', ( #211 ) ) ;
#56 = EDGE_LOOP ( 'NONE', ( #35 ) ) ;
#57 = VERTEX_POINT ( 'NONE', #3 ) ;
#58 = ORIENTED_EDGE ( 'NONE', *, *, #124, .F. ) ;
#59 = LOCAL_TIME ( 7, 14, 25.00000000000000000, #220 ) ;
#60 = EDGE_CURVE ( 'NONE', #57, #57, #111, .T. ) ;
#61 = AXIS2_PLACEMENT_3D ( 'NONE', #184, #46, #167 ) ;
#62 = APPLICATION_CONTEXT ( 'configuration controlled 3d designs of mechanical parts and assemblies' ) ;
#63 =( LENGTH_UNIT ( ) NAMED_UNIT ( * ) SI_UNIT ( .MILLI., .METRE. ) );
#64 = PLANE ( 'NONE',  #131 ) ;
#65 = ADVANCED_FACE ( 'NONE', ( #117 ), #64, .F. ) ;
#66 = DIRECTION ( 'NONE',  ( 0.0000000000000000000, 0.0000000000000000000, 1.000000000000000000 ) ) ;
#67 = PERSON_AND_ORGANIZATION_ROLE ( 'creator' ) ;
#68 = CYLINDRICAL_SURFACE ( 'NONE', #162, 0.2899999999999993139 ) ;
#69 = DIRECTION ( 'NONE',  ( -3.491481338843133355E-15, 1.224646799147353207E-16, -1.000000000000000000 ) ) ;
#70 = EDGE_CURVE ( 'NONE', #143, #143, #174, .T. ) ;
#71 = ORGANIZATION ( 'UNSPECIFIED', 'UNSPECIFIED', '' ) ;
#72 = CC_DESIGN_APPROVAL ( #210, ( #20 ) ) ;
#73 = ORIENTED_EDGE ( 'NONE', *, *, #129, .T. ) ;
#74 = ORIENTED_EDGE ( 'NONE', *, *, #53, .T. ) ;
#75 = PRODUCT_RELATED_PRODUCT_CATEGORY ( 'detail', '', ( #31 ) ) ;
#76 = CIRCLE ( 'NONE', #32, 0.4999999999999970024 ) ;
#77 = VERTEX_POINT ( 'NONE', #24 ) ;
#78 = VERTEX_POINT ( 'NONE', #193 ) ;
#79 = SECURITY_CLASSIFICATION ( '', '', #199 ) ;
#80 = DATE_AND_TIME ( #135, #91 ) ;
#81 = DIRECTION ( 'NONE',  ( 3.491481338843133355E-15, -1.224646799147353207E-16, 1.000000000000000000 ) ) ;
#82 = APPROVAL_STATUS ( 'not_yet_approved' ) ;
#83 = DIRECTION ( 'NONE',  ( -4.275831445896958607E-31, -1.000000000000000000, -1.224646799147353207E-16 ) ) ;
#84 = PERSON_AND_ORGANIZATION ( #108, #71 ) ;
#85 = MANIFOLD_SOLID_BREP ( 'Corps-Déplacer/Copier1[1]', #54 ) ;
#86 = AXIS2_PLACEMENT_3D ( 'NONE', #122, #43, #148 ) ;
#87 = CC_DESIGN_APPROVAL ( #7, ( #5 ) ) ;
#88 = FACE_OUTER_BOUND ( 'NONE', #177, .T. ) ;
#89 = SHAPE_DEFINITION_REPRESENTATION ( #106, #9 ) ;
#90 = AXIS2_PLACEMENT_3D ( 'NONE', #163, #145, #44 ) ;
#91 = LOCAL_TIME ( 7, 14, 25.00000000000000000, #12 ) ;
#92 = DESIGN_CONTEXT ( 'detailed design', #154, 'design' ) ;
#93 = FACE_OUTER_BOUND ( 'NONE', #22, .T. ) ;
#94 = FACE_OUTER_BOUND ( 'NONE', #141, .T. ) ;
#95 = DIRECTION ( 'NONE',  ( 3.320568869633177586E-31, 1.000000000000000000, 9.346570452461279803E-17 ) ) ;
#96 = PERSON_AND_ORGANIZATION ( #108, #71 ) ;
#97 = DIRECTION ( 'NONE',  ( 0.0000000000000000000, 1.000000000000000000, 0.0000000000000000000 ) ) ;
#98 = DATE_AND_TIME ( #136, #59 ) ;
#99 = DIRECTION ( 'NONE',  ( 4.275831445896958607E-31, 1.000000000000000000, 1.224646799147353207E-16 ) ) ;
#100 = APPROVAL_PERSON_ORGANIZATION ( #84, #210, #169 ) ;
#101 = PERSON_AND_ORGANIZATION_ROLE ( 'classification_officer' ) ;
#102 = FACE_BOUND ( 'NONE', #56, .T. ) ;
#103 = DIRECTION ( 'NONE',  ( -3.491481338843133355E-15, 1.224646799147353207E-16, -1.000000000000000000 ) ) ;
#104 = ADVANCED_FACE ( 'NONE', ( #94, #8 ), #161, .T. ) ;
#105 = MECHANICAL_CONTEXT ( 'NONE', #62, 'mechanical' ) ;
#106 = PRODUCT_DEFINITION_SHAPE ( 'NONE', 'NONE',  #20 ) ;
#107 = CIRCLE ( 'NONE', #198, 0.2899999999999989253 ) ;
#108 = PERSON ( 'UNSPECIFIED', 'UNSPECIFIED', 'UNSPECIFIED', ('UNSPECIFIED'), ('UNSPECIFIED'), ('UNSPECIFIED') ) ;
#109 = COORDINATED_UNIVERSAL_TIME_OFFSET ( 1, 0, .AHEAD. ) ;
#110 = ADVANCED_FACE ( 'NONE', ( #137 ), #155, .T. ) ;
#111 = CIRCLE ( 'NONE', #181, 0.2899999999999997025 ) ;
#112 = ORIENTED_EDGE ( 'NONE', *, *, #34, .T. ) ;
#113 = ADVANCED_FACE ( 'NONE', ( #170 ), #208, .F. ) ;
#114 = EDGE_LOOP ( 'NONE', ( #212 ) ) ;
#115 =( GEOMETRIC_REPRESENTATION_CONTEXT ( 3 ) GLOBAL_UNCERTAINTY_ASSIGNED_CONTEXT ( ( #126 ) ) GLOBAL_UNIT_ASSIGNED_CONTEXT ( ( #63, #125, #185 ) ) REPRESENTATION_CONTEXT ( 'NONE', 'WORKASPACE' ) );
#116 = CC_DESIGN_PERSON_AND_ORGANIZATION_ASSIGNMENT ( #221, #186, ( #5 ) ) ;
#117 = FACE_OUTER_BOUND ( 'NONE', #194, .T. ) ;
#118 = DIRECTION ( 'NONE',  ( 0.0000000000000000000, 1.000000000000000000, 0.0000000000000000000 ) ) ;
#119 = DATE_TIME_ROLE ( 'classification_date' ) ;
#120 = CARTESIAN_POINT ( 'NONE',  ( 1.047444401652940007E-13, 0.3999999999999953038, 30.00000000000000000 ) ) ;
#121 = LOCAL_TIME ( 7, 14, 25.00000000000000000, #40 ) ;
#122 = CARTESIAN_POINT ( 'NONE',  ( 6.083891551883379436E-16, -2.133941898094832565E-17, 0.1742495795179937745 ) ) ;
#123 = DIRECTION ( 'NONE',  ( -3.491481338843133355E-15, 1.224646799147353207E-16, -1.000000000000000000 ) ) ;
#124 = EDGE_CURVE ( 'NONE', #27, #27, #4, .T. ) ;
#125 =( NAMED_UNIT ( * ) PLANE_ANGLE_UNIT ( ) SI_UNIT ( $, .RADIAN. ) );
#126 = UNCERTAINTY_MEASURE_WITH_UNIT (LENGTH_MEASURE( 1.000000000000000082E-05 ), #63, 'distance_accuracy_value', 'NONE');
#127 = EDGE_LOOP ( 'NONE', ( #58 ) ) ;
#128 = APPROVAL_PERSON_ORGANIZATION ( #138, #7, #25 ) ;
#129 = EDGE_CURVE ( 'NONE', #151, #151, #76, .T. ) ;
#130 = CARTESIAN_POINT ( 'NONE',  ( 6.083891551883379436E-16, -2.133941898094832565E-17, 0.1742495795179937745 ) ) ;
#131 = AXIS2_PLACEMENT_3D ( 'NONE', #132, #200, #99 ) ;
#132 = CARTESIAN_POINT ( 'NONE',  ( 1.047444401652940007E-13, 2.999519565323652267E-33, 30.00000000000000000 ) ) ;
#133 = CC_DESIGN_APPROVAL ( #6, ( #79 ) ) ;
#134 = DATE_AND_TIME ( #30, #189 ) ;
#135 = CALENDAR_DATE ( 2021, 8, 10 ) ;
#136 = CALENDAR_DATE ( 2021, 8, 10 ) ;
#137 = FACE_OUTER_BOUND ( 'NONE', #178, .T. ) ;
#138 = PERSON_AND_ORGANIZATION ( #108, #71 ) ;
#139 = DIRECTION ( 'NONE',  ( 0.0000000000000000000, 1.000000000000000000, 0.0000000000000000000 ) ) ;
#140 = CARTESIAN_POINT ( 'NONE',  ( 0.0000000000000000000, 0.0000000000000000000, 0.0000000000000000000 ) ) ;
#141 = EDGE_LOOP ( 'NONE', ( #158 ) ) ;
#142 = EDGE_LOOP ( 'NONE', ( #33 ) ) ;
#143 = VERTEX_POINT ( 'NONE', #120 ) ;
#144 = DIRECTION ( 'NONE',  ( -3.491481338843133355E-15, 1.224646799147353207E-16, -1.000000000000000000 ) ) ;
#145 = DIRECTION ( 'NONE',  ( 3.491481338843133355E-15, -1.224646799147353207E-16, 1.000000000000000000 ) ) ;
#146 = CONICAL_SURFACE ( 'NONE', #168, 0.4999999999999970024, 0.2617993877991428575 ) ;
#147 = APPROVAL_DATE_TIME ( #80, #7 ) ;
#148 = DIRECTION ( 'NONE',  ( -3.320568869633177586E-31, -1.000000000000000000, -9.346570452461279803E-17 ) ) ;
#149 = DIRECTION ( 'NONE',  ( 0.0000000000000000000, -1.000000000000000000, 0.0000000000000000000 ) ) ;
#150 = FACE_OUTER_BOUND ( 'NONE', #55, .T. ) ;
#151 = VERTEX_POINT ( 'NONE', #203 ) ;
#152 = CARTESIAN_POINT ( 'NONE',  ( 1.571166602479410325E-14, -5.510910596163089556E-16, 4.500000000000000888 ) ) ;
#153 = PERSON_AND_ORGANIZATION_ROLE ( 'design_supplier' ) ;
#154 = APPLICATION_CONTEXT ( 'configuration controlled 3d designs of mechanical parts and assemblies' ) ;
#155 = CONICAL_SURFACE ( 'NONE', #86, 0.2899999999999989253, 1.029744258676649649 ) ;
#156 = DATE_AND_TIME ( #190, #51 ) ;
#157 = CC_DESIGN_PERSON_AND_ORGANIZATION_ASSIGNMENT ( #96, #101, ( #79 ) ) ;
#158 = ORIENTED_EDGE ( 'NONE', *, *, #129, .F. ) ;
#159 = CONICAL_SURFACE ( 'NONE', #61, 0.3999999999999989675, 0.7853981633974694843 ) ;
#160 = CC_DESIGN_SECURITY_CLASSIFICATION ( #79, ( #5 ) ) ;
#161 = CYLINDRICAL_SURFACE ( 'NONE', #219, 0.4999999999999980571 ) ;
#162 = AXIS2_PLACEMENT_3D ( 'NONE', #140, #103, #201 ) ;
#163 = CARTESIAN_POINT ( 'NONE',  ( 1.571166602479410325E-14, -1.040465259281786743E-31, 4.500000000000000888 ) ) ;
#164 = DIRECTION ( 'NONE',  ( 1.000000000000000000, 0.0000000000000000000, 0.0000000000000000000 ) ) ;
#165 = CARTESIAN_POINT ( 'NONE',  ( 1.571166602479410325E-14, -5.510910596163089556E-16, 4.500000000000000888 ) ) ;
#166 = CARTESIAN_POINT ( 'NONE',  ( 0.0000000000000000000, 0.0000000000000000000, 0.0000000000000000000 ) ) ;
#167 = DIRECTION ( 'NONE',  ( 0.0000000000000000000, 1.000000000000000000, 0.0000000000000000000 ) ) ;
#168 = AXIS2_PLACEMENT_3D ( 'NONE', #204, #81, #149 ) ;
#169 = APPROVAL_ROLE ( '' ) ;
#170 = FACE_OUTER_BOUND ( 'NONE', #142, .T. ) ;
#171 = CALENDAR_DATE ( 2021, 8, 10 ) ;
#172 = CARTESIAN_POINT ( 'NONE',  ( 1.571166602479410325E-14, -1.040465259281786743E-31, 4.500000000000000888 ) ) ;
#173 = COORDINATED_UNIVERSAL_TIME_OFFSET ( 1, 0, .AHEAD. ) ;
#174 = CIRCLE ( 'NONE', #50, 0.3999999999999989675 ) ;
#175 = EDGE_LOOP ( 'NONE', ( #192 ) ) ;
#176 = ADVANCED_FACE ( 'NONE', ( #41, #102 ), #159, .T. ) ;
#177 = EDGE_LOOP ( 'NONE', ( #73 ) ) ;
#178 = EDGE_LOOP ( 'NONE', ( #74 ) ) ;
#179 = CARTESIAN_POINT ( 'NONE',  ( 1.047444401652940007E-13, -3.673940397442059178E-15, 30.00000000000000000 ) ) ;
#180 = CC_DESIGN_DATE_AND_TIME_ASSIGNMENT ( #209, #119, ( #79 ) ) ;
#181 = AXIS2_PLACEMENT_3D ( 'NONE', #165, #196, #37 ) ;
#182 = DATE_TIME_ROLE ( 'creation_date' ) ;
#183 = DIRECTION ( 'NONE',  ( 0.0000000000000000000, 1.000000000000000000, 0.0000000000000000000 ) ) ;
#184 = CARTESIAN_POINT ( 'NONE',  ( 1.047444401652940007E-13, -3.673940397442059178E-15, 30.00000000000000000 ) ) ;
#185 =( NAMED_UNIT ( * ) SI_UNIT ( $, .STERADIAN. ) SOLID_ANGLE_UNIT ( ) );
#186 = PERSON_AND_ORGANIZATION_ROLE ( 'creator' ) ;
#187 = APPLICATION_PROTOCOL_DEFINITION ( 'international standard', 'config_control_design', 1994, #154 ) ;
#188 = APPROVAL_DATE_TIME ( #156, #6 ) ;
#189 = LOCAL_TIME ( 7, 14, 25.00000000000000000, #173 ) ;
#190 = CALENDAR_DATE ( 2021, 8, 10 ) ;
#191 = APPROVAL_ROLE ( '' ) ;
#192 = ORIENTED_EDGE ( 'NONE', *, *, #60, .F. ) ;
#193 = CARTESIAN_POINT ( 'NONE',  ( 6.083891551883380422E-16, 0.2899999999999989253, 0.1742495795179938023 ) ) ;
#194 = EDGE_LOOP ( 'NONE', ( #195 ) ) ;
#195 = ORIENTED_EDGE ( 'NONE', *, *, #70, .F. ) ;
#196 = DIRECTION ( 'NONE',  ( -3.491481338843133355E-15, 1.224646799147353207E-16, -1.000000000000000000 ) ) ;
#197 = CIRCLE ( 'NONE', #39, 0.4999999999999991673 ) ;
#198 = AXIS2_PLACEMENT_3D ( 'NONE', #130, #26, #95 ) ;
#199 = SECURITY_CLASSIFICATION_LEVEL ( 'unclassified' ) ;
#200 = DIRECTION ( 'NONE',  ( -3.491481338843133355E-15, 1.224646799147353207E-16, -1.000000000000000000 ) ) ;
#201 = DIRECTION ( 'NONE',  ( 4.275831445896958607E-31, 1.000000000000000000, 1.224646799147352961E-16 ) ) ;
#202 = CARTESIAN_POINT ( 'NONE',  ( 0.0000000000000000000, 0.0000000000000000000, 0.0000000000000000000 ) ) ;
#203 = CARTESIAN_POINT ( 'NONE',  ( 1.844804703234478749E-14, 0.4999999999999963363, 5.283730669589475681 ) ) ;
#204 = CARTESIAN_POINT ( 'NONE',  ( 1.844804703234478749E-14, -6.470703852069452444E-16, 5.283730669589475681 ) ) ;
#205 = PERSON_AND_ORGANIZATION ( #108, #71 ) ;
#206 = FACE_OUTER_BOUND ( 'NONE', #175, .T. ) ;
#207 = CARTESIAN_POINT ( 'NONE',  ( 1.844804703234478749E-14, -6.470703852069452444E-16, 5.283730669589475681 ) ) ;
#208 = PLANE ( 'NONE',  #215 ) ;
#209 = DATE_AND_TIME ( #171, #121 ) ;
#210 = APPROVAL ( #82, 'UNSPECIFIED' ) ;
#211 = ORIENTED_EDGE ( 'NONE', *, *, #60, .T. ) ;
#212 = ORIENTED_EDGE ( 'NONE', *, *, #34, .F. ) ;
#213 = ADVANCED_FACE ( 'NONE', ( #93, #150 ), #68, .T. ) ;
#214 = EDGE_LOOP ( 'NONE', ( #112 ) ) ;
#215 = AXIS2_PLACEMENT_3D ( 'NONE', #172, #16, #83 ) ;
#216 = DIRECTION ( 'NONE',  ( -3.491481338843133355E-15, 1.224646799147353207E-16, -1.000000000000000000 ) ) ;
#217 = DIRECTION ( 'NONE',  ( 4.275831445896958607E-31, 1.000000000000000000, 1.224646799147353207E-16 ) ) ;
#218 = PLANE ( 'NONE',  #90 ) ;
#219 = AXIS2_PLACEMENT_3D ( 'NONE', #166, #144, #217 ) ;
#220 = COORDINATED_UNIVERSAL_TIME_OFFSET ( 1, 0, .AHEAD. ) ;
#221 = PERSON_AND_ORGANIZATION ( #108, #71 ) ;
#222 = PERSON_AND_ORGANIZATION_ROLE ( 'design_owner' ) ;
#223 = CC_DESIGN_PERSON_AND_ORGANIZATION_ASSIGNMENT ( #205, #222, ( #31 ) ) ;
ENDSEC;
END-ISO-10303-21;
