ISO-10303-21;
HEADER;
FILE_DESCRIPTION (( 'STEP AP203' ),
    '1' );
FILE_NAME ('55309.step',
    '2021-10-08T05:14:24',
    ( '' ),
    ( '' ),
    'SwSTEP 2.0',
    'SolidWorks 2019',
    '' );
FILE_SCHEMA (( 'CONFIG_CONTROL_DESIGN' ));
ENDSEC;

DATA;
#1 = APPLICATION_CONTEXT ( 'configuration controlled 3d designs of mechanical parts and assemblies' ) ;
#2 = UNCERTAINTY_MEASURE_WITH_UNIT (LENGTH_MEASURE( 1.000000000000000082E-05 ), #16, 'distance_accuracy_value', 'NONE');
#3 = FACE_OUTER_BOUND ( 'NONE', #158, .T. ) ;
#4 = EDGE_CURVE ( 'NONE', #48, #48, #81, .T. ) ;
#5 = DIRECTION ( 'NONE',  ( -3.491481338843133355E-15, 1.224646799147353207E-16, -1.000000000000000000 ) ) ;
#6 = DIRECTION ( 'NONE',  ( 0.0000000000000000000, 1.000000000000000000, 0.0000000000000000000 ) ) ;
#7 = EDGE_LOOP ( 'NONE', ( #160 ) ) ;
#8 = DIRECTION ( 'NONE',  ( -3.491481338843133355E-15, 1.224646799147353207E-16, -1.000000000000000000 ) ) ;
#9 = CARTESIAN_POINT ( 'NONE',  ( 1.047444401652940007E-13, 0.3999999999999953038, 30.00000000000000000 ) ) ;
#10 = ADVANCED_FACE ( 'NONE', ( #214 ), #182, .F. ) ;
#11 = PRODUCT_DEFINITION ( 'UNKNOWN', '', #35, #119 ) ;
#12 = APPROVAL_ROLE ( '' ) ;
#13 = PERSON_AND_ORGANIZATION ( #103, #58 ) ;
#14 = CIRCLE ( 'NONE', #136, 0.2849999999999996425 ) ;
#15 = APPROVAL_PERSON_ORGANIZATION ( #186, #137, #96 ) ;
#16 =( LENGTH_UNIT ( ) NAMED_UNIT ( * ) SI_UNIT ( .MILLI., .METRE. ) );
#17 = CALENDAR_DATE ( 2021, 8, 10 ) ;
#18 = DIRECTION ( 'NONE',  ( 3.491481338843133355E-15, -1.224646799147353207E-16, 1.000000000000000000 ) ) ;
#19 = ADVANCED_FACE ( 'NONE', ( #73, #194 ), #178, .T. ) ;
#20 = DIRECTION ( 'NONE',  ( -3.491481338843133355E-15, 1.224646799147353207E-16, -1.000000000000000000 ) ) ;
#21 = ORIENTED_EDGE ( 'NONE', *, *, #121, .T. ) ;
#22 = AXIS2_PLACEMENT_3D ( 'NONE', #140, #38, #126 ) ;
#23 = FACE_BOUND ( 'NONE', #50, .T. ) ;
#24 = CARTESIAN_POINT ( 'NONE',  ( 1.851319896109599260E-14, 0.4999999999999963363, 5.302390923627320340 ) ) ;
#25 = DIRECTION ( 'NONE',  ( 0.0000000000000000000, 0.0000000000000000000, 1.000000000000000000 ) ) ;
#26 = DATE_TIME_ROLE ( 'classification_date' ) ;
#27 = CC_DESIGN_DATE_AND_TIME_ASSIGNMENT ( #31, #26, ( #203 ) ) ;
#28 = APPROVAL_PERSON_ORGANIZATION ( #77, #91, #221 ) ;
#29 = CC_DESIGN_PERSON_AND_ORGANIZATION_ASSIGNMENT ( #129, #57, ( #11 ) ) ;
#30 =( NAMED_UNIT ( * ) SI_UNIT ( $, .STERADIAN. ) SOLID_ANGLE_UNIT ( ) );
#31 = DATE_AND_TIME ( #218, #153 ) ;
#32 = DIRECTION ( 'NONE',  ( 0.0000000000000000000, 1.000000000000000000, 0.0000000000000000000 ) ) ;
#33 = DIRECTION ( 'NONE',  ( -3.491481338843133355E-15, 1.224646799147353207E-16, -1.000000000000000000 ) ) ;
#34 = EDGE_LOOP ( 'NONE', ( #63 ) ) ;
#35 = PRODUCT_DEFINITION_FORMATION_WITH_SPECIFIED_SOURCE ( 'ANY', '', #80, .NOT_KNOWN. ) ;
#36 = AXIS2_PLACEMENT_3D ( 'NONE', #161, #8, #145 ) ;
#37 = EDGE_LOOP ( 'NONE', ( #49 ) ) ;
#38 = DIRECTION ( 'NONE',  ( -3.491481338843133355E-15, 1.224646799147353207E-16, -1.000000000000000000 ) ) ;
#39 = APPROVAL ( #183, 'UNSPECIFIED' ) ;
#40 = APPLICATION_PROTOCOL_DEFINITION ( 'international standard', 'config_control_design', 1994, #1 ) ;
#41 = PERSON_AND_ORGANIZATION_ROLE ( 'creator' ) ;
#42 = EDGE_CURVE ( 'NONE', #141, #141, #219, .T. ) ;
#43 = CALENDAR_DATE ( 2021, 8, 10 ) ;
#44 = DIRECTION ( 'NONE',  ( 0.0000000000000000000, 1.000000000000000000, 0.0000000000000000000 ) ) ;
#45 = DATE_AND_TIME ( #43, #67 ) ;
#46 = CIRCLE ( 'NONE', #110, 0.2849999999999996425 ) ;
#47 = CARTESIAN_POINT ( 'NONE',  ( 1.571166602479410010E-14, -5.510910596163088569E-16, 4.500000000000000000 ) ) ;
#48 = VERTEX_POINT ( 'NONE', #9 ) ;
#49 = ORIENTED_EDGE ( 'NONE', *, *, #144, .T. ) ;
#50 = EDGE_LOOP ( 'NONE', ( #175 ) ) ;
#51 = MANIFOLD_SOLID_BREP ( 'Corps-Déplacer/Copier1[2]', #125 ) ;
#52 = CC_DESIGN_PERSON_AND_ORGANIZATION_ASSIGNMENT ( #120, #82, ( #35 ) ) ;
#53 = DIRECTION ( 'NONE',  ( -4.275831445896958607E-31, -1.000000000000000000, -1.224646799147353207E-16 ) ) ;
#54 = SHAPE_DEFINITION_REPRESENTATION ( #97, #98 ) ;
#55 = FACE_OUTER_BOUND ( 'NONE', #159, .T. ) ;
#56 = APPLICATION_PROTOCOL_DEFINITION ( 'international standard', 'config_control_design', 1994, #76 ) ;
#57 = PERSON_AND_ORGANIZATION_ROLE ( 'creator' ) ;
#58 = ORGANIZATION ( 'UNSPECIFIED', 'UNSPECIFIED', '' ) ;
#59 = CARTESIAN_POINT ( 'NONE',  ( 1.043952920314096936E-13, 0.4999999999999954481, 29.90000000000000213 ) ) ;
#60 = CC_DESIGN_PERSON_AND_ORGANIZATION_ASSIGNMENT ( #132, #41, ( #35 ) ) ;
#61 = CC_DESIGN_SECURITY_CLASSIFICATION ( #203, ( #35 ) ) ;
#62 = ORIENTED_EDGE ( 'NONE', *, *, #42, .F. ) ;
#63 = ORIENTED_EDGE ( 'NONE', *, *, #149, .T. ) ;
#64 = DIRECTION ( 'NONE',  ( -3.378824463837267837E-31, -1.000000000000000000, -9.510545372679897104E-17 ) ) ;
#65 = ADVANCED_FACE ( 'NONE', ( #162 ), #90, .T. ) ;
#66 = ORIENTED_EDGE ( 'NONE', *, *, #223, .F. ) ;
#67 = LOCAL_TIME ( 7, 14, 24.00000000000000000, #167 ) ;
#68 = AXIS2_PLACEMENT_3D ( 'NONE', #71, #111, #206 ) ;
#69 = EDGE_LOOP ( 'NONE', ( #85 ) ) ;
#70 = CARTESIAN_POINT ( 'NONE',  ( 1.571166602479410010E-14, 2.137157690293136349E-33, 4.500000000000000000 ) ) ;
#71 = CARTESIAN_POINT ( 'NONE',  ( 1.047444401652940007E-13, 2.999519565323652267E-33, 30.00000000000000000 ) ) ;
#72 = LOCAL_TIME ( 7, 14, 24.00000000000000000, #187 ) ;
#73 = FACE_OUTER_BOUND ( 'NONE', #138, .T. ) ;
#74 = APPROVAL_DATE_TIME ( #45, #39 ) ;
#75 = COORDINATED_UNIVERSAL_TIME_OFFSET ( 1, 0, .AHEAD. ) ;
#76 = APPLICATION_CONTEXT ( 'configuration controlled 3d designs of mechanical parts and assemblies' ) ;
#77 = PERSON_AND_ORGANIZATION ( #103, #58 ) ;
#78 = AXIS2_PLACEMENT_3D ( 'NONE', #213, #5, #202 ) ;
#79 = CC_DESIGN_PERSON_AND_ORGANIZATION_ASSIGNMENT ( #13, #189, ( #203 ) ) ;
#80 = PRODUCT ( '55309', '55309', '', ( #155 ) ) ;
#81 = CIRCLE ( 'NONE', #170, 0.3999999999999989675 ) ;
#82 = PERSON_AND_ORGANIZATION_ROLE ( 'design_supplier' ) ;
#83 = DIRECTION ( 'NONE',  ( -3.491481338843133355E-15, 1.224646799147353207E-16, -1.000000000000000000 ) ) ;
#84 = CARTESIAN_POINT ( 'NONE',  ( 1.571166602479410010E-14, 0.2849999999999991429, 4.500000000000000000 ) ) ;
#85 = ORIENTED_EDGE ( 'NONE', *, *, #149, .F. ) ;
#86 = EDGE_LOOP ( 'NONE', ( #87 ) ) ;
#87 = ORIENTED_EDGE ( 'NONE', *, *, #4, .F. ) ;
#88 = ORIENTED_EDGE ( 'NONE', *, *, #42, .T. ) ;
#89 = LOCAL_TIME ( 7, 14, 24.00000000000000000, #75 ) ;
#90 = PLANE ( 'NONE',  #154 ) ;
#91 = APPROVAL ( #151, 'UNSPECIFIED' ) ;
#92 = ORIENTED_EDGE ( 'NONE', *, *, #223, .T. ) ;
#93 = FACE_OUTER_BOUND ( 'NONE', #122, .T. ) ;
#94 = DIRECTION ( 'NONE',  ( 4.275831445896958607E-31, 1.000000000000000000, 1.224646799147353207E-16 ) ) ;
#95 = PERSON_AND_ORGANIZATION ( #103, #58 ) ;
#96 = APPROVAL_ROLE ( '' ) ;
#97 = PRODUCT_DEFINITION_SHAPE ( 'NONE', 'NONE',  #11 ) ;
#98 = ADVANCED_BREP_SHAPE_REPRESENTATION ( '55309', ( #134, #51, #173 ), #190 ) ;
#99 = VERTEX_POINT ( 'NONE', #59 ) ;
#100 = DIRECTION ( 'NONE',  ( -3.491481338843133355E-15, 1.224646799147353207E-16, -1.000000000000000000 ) ) ;
#101 = DATE_AND_TIME ( #17, #72 ) ;
#102 = DATE_AND_TIME ( #114, #133 ) ;
#103 = PERSON ( 'UNSPECIFIED', 'UNSPECIFIED', 'UNSPECIFIED', ('UNSPECIFIED'), ('UNSPECIFIED'), ('UNSPECIFIED') ) ;
#104 = AXIS2_PLACEMENT_3D ( 'NONE', #172, #18, #64 ) ;
#105 = PLANE ( 'NONE',  #185 ) ;
#106 = CARTESIAN_POINT ( 'NONE',  ( 1.047444401652940007E-13, -3.673940397442059178E-15, 30.00000000000000000 ) ) ;
#107 = DIRECTION ( 'NONE',  ( 3.491481338843133355E-15, -1.224646799147353207E-16, 1.000000000000000000 ) ) ;
#108 = CC_DESIGN_DATE_AND_TIME_ASSIGNMENT ( #102, #135, ( #11 ) ) ;
#109 = CARTESIAN_POINT ( 'NONE',  ( 1.571166602479410010E-14, 2.137157690293136349E-33, 4.500000000000000000 ) ) ;
#110 = AXIS2_PLACEMENT_3D ( 'NONE', #47, #33, #204 ) ;
#111 = DIRECTION ( 'NONE',  ( -3.491481338843133355E-15, 1.224646799147353207E-16, -1.000000000000000000 ) ) ;
#112 =( NAMED_UNIT ( * ) PLANE_ANGLE_UNIT ( ) SI_UNIT ( $, .RADIAN. ) );
#113 = CARTESIAN_POINT ( 'NONE',  ( 0.0000000000000000000, 0.0000000000000000000, 0.0000000000000000000 ) ) ;
#114 = CALENDAR_DATE ( 2021, 8, 10 ) ;
#115 = COORDINATED_UNIVERSAL_TIME_OFFSET ( 1, 0, .AHEAD. ) ;
#116 = PERSON_AND_ORGANIZATION_ROLE ( 'design_owner' ) ;
#117 = ORIENTED_EDGE ( 'NONE', *, *, #144, .F. ) ;
#118 = ADVANCED_FACE ( 'NONE', ( #180, #23 ), #177, .T. ) ;
#119 = DESIGN_CONTEXT ( 'detailed design', #76, 'design' ) ;
#120 = PERSON_AND_ORGANIZATION ( #103, #58 ) ;
#121 = EDGE_CURVE ( 'NONE', #163, #163, #46, .T. ) ;
#122 = EDGE_LOOP ( 'NONE', ( #66 ) ) ;
#123 = DIRECTION ( 'NONE',  ( 3.491481338843133355E-15, -1.224646799147353207E-16, 1.000000000000000000 ) ) ;
#124 = AXIS2_PLACEMENT_3D ( 'NONE', #166, #147, #207 ) ;
#125 = CLOSED_SHELL ( 'NONE', ( #152, #196, #65 ) ) ;
#126 = DIRECTION ( 'NONE',  ( 0.0000000000000000000, 1.000000000000000000, 0.0000000000000000000 ) ) ;
#127 = DIRECTION ( 'NONE',  ( 3.491481338843133355E-15, -1.224646799147353207E-16, 1.000000000000000000 ) ) ;
#128 = AXIS2_PLACEMENT_3D ( 'NONE', #113, #184, #94 ) ;
#129 = PERSON_AND_ORGANIZATION ( #103, #58 ) ;
#130 = CALENDAR_DATE ( 2021, 8, 10 ) ;
#131 = CYLINDRICAL_SURFACE ( 'NONE', #128, 0.2849999999999993650 ) ;
#132 = PERSON_AND_ORGANIZATION ( #103, #58 ) ;
#133 = LOCAL_TIME ( 7, 14, 24.00000000000000000, #198 ) ;
#134 = MANIFOLD_SOLID_BREP ( 'Corps-Déplacer/Copier1[1]', #193 ) ;
#135 = DATE_TIME_ROLE ( 'creation_date' ) ;
#136 = AXIS2_PLACEMENT_3D ( 'NONE', #191, #100, #32 ) ;
#137 = APPROVAL ( #199, 'UNSPECIFIED' ) ;
#138 = EDGE_LOOP ( 'NONE', ( #62 ) ) ;
#139 = AXIS2_PLACEMENT_3D ( 'NONE', #209, #107, #208 ) ;
#140 = CARTESIAN_POINT ( 'NONE',  ( 1.851319896109599260E-14, -6.493556072448175652E-16, 5.302390923627320340 ) ) ;
#141 = VERTEX_POINT ( 'NONE', #24 ) ;
#142 = CARTESIAN_POINT ( 'NONE',  ( 1.571166602479410010E-14, 0.2849999999999991429, 4.500000000000000000 ) ) ;
#143 = CIRCLE ( 'NONE', #124, 0.2849999999999989764 ) ;
#144 = EDGE_CURVE ( 'NONE', #211, #211, #14, .T. ) ;
#145 = DIRECTION ( 'NONE',  ( 4.275831445896958607E-31, 1.000000000000000000, 1.224646799147353207E-16 ) ) ;
#146 = APPROVAL_DATE_TIME ( #171, #137 ) ;
#147 = DIRECTION ( 'NONE',  ( -3.491481338843133355E-15, 1.224646799147353207E-16, -1.000000000000000000 ) ) ;
#148 = SECURITY_CLASSIFICATION_LEVEL ( 'unclassified' ) ;
#149 = EDGE_CURVE ( 'NONE', #99, #99, #168, .T. ) ;
#150 = CONICAL_SURFACE ( 'NONE', #139, 0.4999999999999970024, 0.2617993877991425800 ) ;
#151 = APPROVAL_STATUS ( 'not_yet_approved' ) ;
#152 = ADVANCED_FACE ( 'NONE', ( #174 ), #200, .T. ) ;
#153 = LOCAL_TIME ( 7, 14, 24.00000000000000000, #115 ) ;
#154 = AXIS2_PLACEMENT_3D ( 'NONE', #70, #123, #195 ) ;
#155 = MECHANICAL_CONTEXT ( 'NONE', #1, 'mechanical' ) ;
#156 = CARTESIAN_POINT ( 'NONE',  ( 1.043952920314096936E-13, -3.661693929450586610E-15, 29.90000000000000213 ) ) ;
#157 = VERTEX_POINT ( 'NONE', #188 ) ;
#158 = EDGE_LOOP ( 'NONE', ( #88 ) ) ;
#159 = EDGE_LOOP ( 'NONE', ( #21 ) ) ;
#160 = ORIENTED_EDGE ( 'NONE', *, *, #121, .F. ) ;
#161 = CARTESIAN_POINT ( 'NONE',  ( 0.0000000000000000000, 0.0000000000000000000, 0.0000000000000000000 ) ) ;
#162 = FACE_OUTER_BOUND ( 'NONE', #7, .T. ) ;
#163 = VERTEX_POINT ( 'NONE', #142 ) ;
#164 = ADVANCED_FACE ( 'NONE', ( #205, #3 ), #150, .T. ) ;
#165 = AXIS2_PLACEMENT_3D ( 'NONE', #156, #83, #6 ) ;
#166 = CARTESIAN_POINT ( 'NONE',  ( 5.978996869954353647E-16, -2.097149796403542216E-17, 0.1712452764228559188 ) ) ;
#167 = COORDINATED_UNIVERSAL_TIME_OFFSET ( 1, 0, .AHEAD. ) ;
#168 = CIRCLE ( 'NONE', #165, 0.4999999999999991673 ) ;
#169 = CC_DESIGN_APPROVAL ( #39, ( #35 ) ) ;
#170 = AXIS2_PLACEMENT_3D ( 'NONE', #106, #20, #44 ) ;
#171 = DATE_AND_TIME ( #130, #89 ) ;
#172 = CARTESIAN_POINT ( 'NONE',  ( 5.978996869954353647E-16, -2.097149796403542216E-17, 0.1712452764228559188 ) ) ;
#173 = AXIS2_PLACEMENT_3D ( 'NONE', #217, #25, #197 ) ;
#174 = FACE_OUTER_BOUND ( 'NONE', #222, .T. ) ;
#175 = ORIENTED_EDGE ( 'NONE', *, *, #4, .T. ) ;
#176 = EDGE_LOOP ( 'NONE', ( #117 ) ) ;
#177 = CONICAL_SURFACE ( 'NONE', #78, 0.3999999999999989675, 0.7853981633974694843 ) ;
#178 = CYLINDRICAL_SURFACE ( 'NONE', #36, 0.4999999999999980571 ) ;
#179 = APPROVAL_PERSON_ORGANIZATION ( #201, #39, #12 ) ;
#180 = FACE_OUTER_BOUND ( 'NONE', #69, .T. ) ;
#181 = ADVANCED_FACE ( 'NONE', ( #192 ), #105, .F. ) ;
#182 = PLANE ( 'NONE',  #68 ) ;
#183 = APPROVAL_STATUS ( 'not_yet_approved' ) ;
#184 = DIRECTION ( 'NONE',  ( -3.491481338843133355E-15, 1.224646799147353207E-16, -1.000000000000000000 ) ) ;
#185 = AXIS2_PLACEMENT_3D ( 'NONE', #109, #127, #53 ) ;
#186 = PERSON_AND_ORGANIZATION ( #103, #58 ) ;
#187 = COORDINATED_UNIVERSAL_TIME_OFFSET ( 1, 0, .AHEAD. ) ;
#188 = CARTESIAN_POINT ( 'NONE',  ( 5.978996869954354633E-16, 0.2849999999999989764, 0.1712452764228559465 ) ) ;
#189 = PERSON_AND_ORGANIZATION_ROLE ( 'classification_officer' ) ;
#190 =( GEOMETRIC_REPRESENTATION_CONTEXT ( 3 ) GLOBAL_UNCERTAINTY_ASSIGNED_CONTEXT ( ( #2 ) ) GLOBAL_UNIT_ASSIGNED_CONTEXT ( ( #16, #112, #30 ) ) REPRESENTATION_CONTEXT ( 'NONE', 'WORKASPACE' ) );
#191 = CARTESIAN_POINT ( 'NONE',  ( 1.571166602479410010E-14, -5.510910596163088569E-16, 4.500000000000000000 ) ) ;
#192 = FACE_OUTER_BOUND ( 'NONE', #37, .T. ) ;
#193 = CLOSED_SHELL ( 'NONE', ( #181, #164, #19, #118, #10 ) ) ;
#194 = FACE_OUTER_BOUND ( 'NONE', #34, .T. ) ;
#195 = DIRECTION ( 'NONE',  ( -4.275831445896958607E-31, -1.000000000000000000, -1.224646799147353207E-16 ) ) ;
#196 = ADVANCED_FACE ( 'NONE', ( #93, #55 ), #131, .T. ) ;
#197 = DIRECTION ( 'NONE',  ( 1.000000000000000000, 0.0000000000000000000, 0.0000000000000000000 ) ) ;
#198 = COORDINATED_UNIVERSAL_TIME_OFFSET ( 1, 0, .AHEAD. ) ;
#199 = APPROVAL_STATUS ( 'not_yet_approved' ) ;
#200 = CONICAL_SURFACE ( 'NONE', #104, 0.2849999999999989764, 1.029744258676649649 ) ;
#201 = PERSON_AND_ORGANIZATION ( #103, #58 ) ;
#202 = DIRECTION ( 'NONE',  ( 0.0000000000000000000, 1.000000000000000000, 0.0000000000000000000 ) ) ;
#203 = SECURITY_CLASSIFICATION ( '', '', #148 ) ;
#204 = DIRECTION ( 'NONE',  ( 0.0000000000000000000, 1.000000000000000000, 0.0000000000000000000 ) ) ;
#205 = FACE_BOUND ( 'NONE', #176, .T. ) ;
#206 = DIRECTION ( 'NONE',  ( 4.275831445896958607E-31, 1.000000000000000000, 1.224646799147353207E-16 ) ) ;
#207 = DIRECTION ( 'NONE',  ( 3.378824463837267837E-31, 1.000000000000000000, 9.510545372679897104E-17 ) ) ;
#208 = DIRECTION ( 'NONE',  ( 0.0000000000000000000, -1.000000000000000000, 0.0000000000000000000 ) ) ;
#209 = CARTESIAN_POINT ( 'NONE',  ( 1.851319896109599260E-14, -6.493556072448175652E-16, 5.302390923627320340 ) ) ;
#210 = PRODUCT_RELATED_PRODUCT_CATEGORY ( 'detail', '', ( #80 ) ) ;
#211 = VERTEX_POINT ( 'NONE', #84 ) ;
#212 = CC_DESIGN_APPROVAL ( #137, ( #11 ) ) ;
#213 = CARTESIAN_POINT ( 'NONE',  ( 1.047444401652940007E-13, -3.673940397442059178E-15, 30.00000000000000000 ) ) ;
#214 = FACE_OUTER_BOUND ( 'NONE', #86, .T. ) ;
#215 = APPROVAL_DATE_TIME ( #101, #91 ) ;
#216 = CC_DESIGN_PERSON_AND_ORGANIZATION_ASSIGNMENT ( #95, #116, ( #80 ) ) ;
#217 = CARTESIAN_POINT ( 'NONE',  ( 0.0000000000000000000, 0.0000000000000000000, 0.0000000000000000000 ) ) ;
#218 = CALENDAR_DATE ( 2021, 8, 10 ) ;
#219 = CIRCLE ( 'NONE', #22, 0.4999999999999970024 ) ;
#220 = CC_DESIGN_APPROVAL ( #91, ( #203 ) ) ;
#221 = APPROVAL_ROLE ( '' ) ;
#222 = EDGE_LOOP ( 'NONE', ( #92 ) ) ;
#223 = EDGE_CURVE ( 'NONE', #157, #157, #143, .T. ) ;
ENDSEC;
END-ISO-10303-21;
