ISO-10303-21;
HEADER;
FILE_DESCRIPTION (( 'STEP AP203' ),
    '1' );
FILE_NAME ('55308.step',
    '2021-10-08T05:14:24',
    ( '' ),
    ( '' ),
    'SwSTEP 2.0',
    'SolidWorks 2019',
    '' );
FILE_SCHEMA (( 'CONFIG_CONTROL_DESIGN' ));
ENDSEC;

DATA;
#1 = EDGE_LOOP ( 'NONE', ( #119 ) ) ;
#2 = DATE_AND_TIME ( #163, #152 ) ;
#3 = EDGE_LOOP ( 'NONE', ( #50 ) ) ;
#4 = APPROVAL_DATE_TIME ( #2, #97 ) ;
#5 = ORIENTED_EDGE ( 'NONE', *, *, #134, .T. ) ;
#6 = APPROVAL_STATUS ( 'not_yet_approved' ) ;
#7 =( NAMED_UNIT ( * ) PLANE_ANGLE_UNIT ( ) SI_UNIT ( $, .RADIAN. ) );
#8 = FACE_OUTER_BOUND ( 'NONE', #63, .T. ) ;
#9 = CC_DESIGN_DATE_AND_TIME_ASSIGNMENT ( #131, #130, ( #223 ) ) ;
#10 = DIRECTION ( 'NONE',  ( 4.275831445896958607E-31, 1.000000000000000000, 1.224646799147353454E-16 ) ) ;
#11 = VERTEX_POINT ( 'NONE', #161 ) ;
#12 = DIRECTION ( 'NONE',  ( -3.491481338843133355E-15, 1.224646799147353207E-16, -1.000000000000000000 ) ) ;
#13 = CARTESIAN_POINT ( 'NONE',  ( 1.857835088984720087E-14, -6.516408292826898860E-16, 5.321051177665165000 ) ) ;
#14 = DIRECTION ( 'NONE',  ( -4.275831445896958607E-31, -1.000000000000000000, -1.224646799147353207E-16 ) ) ;
#15 = AXIS2_PLACEMENT_3D ( 'NONE', #102, #39, #68 ) ;
#16 = APPROVAL_DATE_TIME ( #214, #179 ) ;
#17 = EDGE_CURVE ( 'NONE', #72, #72, #74, .T. ) ;
#18 = DIRECTION ( 'NONE',  ( 3.491481338843133355E-15, -1.224646799147353207E-16, 1.000000000000000000 ) ) ;
#19 = CC_DESIGN_PERSON_AND_ORGANIZATION_ASSIGNMENT ( #108, #91, ( #223 ) ) ;
#20 = ADVANCED_BREP_SHAPE_REPRESENTATION ( '55308', ( #93, #166, #38 ), #164 ) ;
#21 = SECURITY_CLASSIFICATION ( '', '', #205 ) ;
#22 = PERSON_AND_ORGANIZATION_ROLE ( 'creator' ) ;
#23 = CC_DESIGN_DATE_AND_TIME_ASSIGNMENT ( #171, #83, ( #21 ) ) ;
#24 = DIRECTION ( 'NONE',  ( 3.439160614977218829E-31, 1.000000000000000000, 9.680376540049180364E-17 ) ) ;
#25 = CARTESIAN_POINT ( 'NONE',  ( 0.0000000000000000000, 0.0000000000000000000, 0.0000000000000000000 ) ) ;
#26 = FACE_OUTER_BOUND ( 'NONE', #116, .T. ) ;
#27 = MECHANICAL_CONTEXT ( 'NONE', #168, 'mechanical' ) ;
#28 = VERTEX_POINT ( 'NONE', #31 ) ;
#29 = CARTESIAN_POINT ( 'NONE',  ( 1.571166602479410010E-14, 2.099663695726588951E-33, 4.500000000000000000 ) ) ;
#30 = SHAPE_DEFINITION_REPRESENTATION ( #100, #20 ) ;
#31 = CARTESIAN_POINT ( 'NONE',  ( 1.857835088984720087E-14, 0.4999999999999963363, 5.321051177665165000 ) ) ;
#32 = CC_DESIGN_APPROVAL ( #162, ( #223 ) ) ;
#33 = DIRECTION ( 'NONE',  ( -3.491481338843133355E-15, 1.224646799147353207E-16, -1.000000000000000000 ) ) ;
#34 = DESIGN_CONTEXT ( 'detailed design', #204, 'design' ) ;
#35 = PERSON_AND_ORGANIZATION ( #142, #48 ) ;
#36 = CALENDAR_DATE ( 2021, 8, 10 ) ;
#37 = FACE_OUTER_BOUND ( 'NONE', #117, .T. ) ;
#38 = AXIS2_PLACEMENT_3D ( 'NONE', #25, #86, #155 ) ;
#39 = DIRECTION ( 'NONE',  ( -3.491481338843133355E-15, 1.224646799147353207E-16, -1.000000000000000000 ) ) ;
#40 = CIRCLE ( 'NONE', #195, 0.3999999999999989675 ) ;
#41 = CC_DESIGN_APPROVAL ( #179, ( #21 ) ) ;
#42 = FACE_OUTER_BOUND ( 'NONE', #136, .T. ) ;
#43 = CONICAL_SURFACE ( 'NONE', #54, 0.4999999999999970024, 0.2617993877991428020 ) ;
#44 = PERSON_AND_ORGANIZATION ( #142, #48 ) ;
#45 = ADVANCED_FACE ( 'NONE', ( #37 ), #194, .F. ) ;
#46 = ORIENTED_EDGE ( 'NONE', *, *, #134, .F. ) ;
#47 = EDGE_LOOP ( 'NONE', ( #121 ) ) ;
#48 = ORGANIZATION ( 'UNSPECIFIED', 'UNSPECIFIED', '' ) ;
#49 = CONICAL_SURFACE ( 'NONE', #149, 0.2799999999999990274, 1.029744258676649649 ) ;
#50 = ORIENTED_EDGE ( 'NONE', *, *, #81, .F. ) ;
#51 = CARTESIAN_POINT ( 'NONE',  ( 1.043952920314096936E-13, -3.661693929450586610E-15, 29.90000000000000213 ) ) ;
#52 = COORDINATED_UNIVERSAL_TIME_OFFSET ( 1, 0, .AHEAD. ) ;
#53 = DIRECTION ( 'NONE',  ( 0.0000000000000000000, 1.000000000000000000, 0.0000000000000000000 ) ) ;
#54 = AXIS2_PLACEMENT_3D ( 'NONE', #154, #196, #84 ) ;
#55 = FACE_OUTER_BOUND ( 'NONE', #139, .T. ) ;
#56 = FACE_OUTER_BOUND ( 'NONE', #192, .T. ) ;
#57 = EDGE_CURVE ( 'NONE', #145, #145, #82, .T. ) ;
#58 = CALENDAR_DATE ( 2021, 8, 10 ) ;
#59 = PERSON_AND_ORGANIZATION ( #142, #48 ) ;
#60 = DIRECTION ( 'NONE',  ( -3.491481338843133355E-15, 1.224646799147353207E-16, -1.000000000000000000 ) ) ;
#61 = CC_DESIGN_APPROVAL ( #97, ( #113 ) ) ;
#62 = APPROVAL_PERSON_ORGANIZATION ( #59, #97, #181 ) ;
#63 = EDGE_LOOP ( 'NONE', ( #202 ) ) ;
#64 = ORIENTED_EDGE ( 'NONE', *, *, #57, .T. ) ;
#65 = EDGE_LOOP ( 'NONE', ( #64 ) ) ;
#66 = APPROVAL_ROLE ( '' ) ;
#67 =( NAMED_UNIT ( * ) SI_UNIT ( $, .STERADIAN. ) SOLID_ANGLE_UNIT ( ) );
#68 = DIRECTION ( 'NONE',  ( 4.275831445896958607E-31, 1.000000000000000000, 1.224646799147353207E-16 ) ) ;
#69 = APPLICATION_PROTOCOL_DEFINITION ( 'international standard', 'config_control_design', 1994, #168 ) ;
#70 = PERSON_AND_ORGANIZATION_ROLE ( 'design_supplier' ) ;
#71 = FACE_OUTER_BOUND ( 'NONE', #47, .T. ) ;
#72 = VERTEX_POINT ( 'NONE', #157 ) ;
#73 = DIRECTION ( 'NONE',  ( 0.0000000000000000000, 1.000000000000000000, 0.0000000000000000000 ) ) ;
#74 = CIRCLE ( 'NONE', #199, 0.2799999999999995270 ) ;
#75 = AXIS2_PLACEMENT_3D ( 'NONE', #13, #177, #221 ) ;
#76 = DIRECTION ( 'NONE',  ( -3.491481338843133355E-15, 1.224646799147353207E-16, -1.000000000000000000 ) ) ;
#77 = VERTEX_POINT ( 'NONE', #129 ) ;
#78 = APPLICATION_PROTOCOL_DEFINITION ( 'international standard', 'config_control_design', 1994, #204 ) ;
#79 = FACE_OUTER_BOUND ( 'NONE', #135, .T. ) ;
#80 = AXIS2_PLACEMENT_3D ( 'NONE', #51, #172, #88 ) ;
#81 = EDGE_CURVE ( 'NONE', #107, #107, #89, .T. ) ;
#82 = CIRCLE ( 'NONE', #80, 0.4999999999999991673 ) ;
#83 = DATE_TIME_ROLE ( 'classification_date' ) ;
#84 = DIRECTION ( 'NONE',  ( 0.0000000000000000000, -1.000000000000000000, 0.0000000000000000000 ) ) ;
#85 = DIRECTION ( 'NONE',  ( 4.275831445896958607E-31, 1.000000000000000000, 1.224646799147353207E-16 ) ) ;
#86 = DIRECTION ( 'NONE',  ( 0.0000000000000000000, 0.0000000000000000000, 1.000000000000000000 ) ) ;
#87 = DIRECTION ( 'NONE',  ( 0.0000000000000000000, 1.000000000000000000, 0.0000000000000000000 ) ) ;
#88 = DIRECTION ( 'NONE',  ( 0.0000000000000000000, 1.000000000000000000, 0.0000000000000000000 ) ) ;
#89 = CIRCLE ( 'NONE', #160, 0.2799999999999990274 ) ;
#90 = CARTESIAN_POINT ( 'NONE',  ( 1.571166602479410010E-14, 2.099663695726588951E-33, 4.500000000000000000 ) ) ;
#91 = PERSON_AND_ORGANIZATION_ROLE ( 'creator' ) ;
#92 = ADVANCED_FACE ( 'NONE', ( #55, #210 ), #127, .T. ) ;
#93 = MANIFOLD_SOLID_BREP ( 'Corps-Déplacer/Copier1[1]', #211 ) ;
#94 = COORDINATED_UNIVERSAL_TIME_OFFSET ( 1, 0, .AHEAD. ) ;
#95 = PRODUCT_RELATED_PRODUCT_CATEGORY ( 'detail', '', ( #114 ) ) ;
#96 = CALENDAR_DATE ( 2021, 8, 10 ) ;
#97 = APPROVAL ( #111, 'UNSPECIFIED' ) ;
#98 = AXIS2_PLACEMENT_3D ( 'NONE', #147, #76, #124 ) ;
#99 = ORIENTED_EDGE ( 'NONE', *, *, #201, .F. ) ;
#100 = PRODUCT_DEFINITION_SHAPE ( 'NONE', 'NONE',  #223 ) ;
#101 = DATE_AND_TIME ( #215, #109 ) ;
#102 = CARTESIAN_POINT ( 'NONE',  ( 1.047444401652940007E-13, 2.999519565323652267E-33, 30.00000000000000000 ) ) ;
#103 = CC_DESIGN_PERSON_AND_ORGANIZATION_ASSIGNMENT ( #170, #22, ( #113 ) ) ;
#104 = CARTESIAN_POINT ( 'NONE',  ( 0.0000000000000000000, 0.0000000000000000000, 0.0000000000000000000 ) ) ;
#105 = PLANE ( 'NONE',  #198 ) ;
#106 = COORDINATED_UNIVERSAL_TIME_OFFSET ( 1, 0, .AHEAD. ) ;
#107 = VERTEX_POINT ( 'NONE', #175 ) ;
#108 = PERSON_AND_ORGANIZATION ( #142, #48 ) ;
#109 = LOCAL_TIME ( 7, 14, 24.00000000000000000, #106 ) ;
#110 = APPROVAL_STATUS ( 'not_yet_approved' ) ;
#111 = APPROVAL_STATUS ( 'not_yet_approved' ) ;
#112 = CLOSED_SHELL ( 'NONE', ( #188, #122, #156 ) ) ;
#113 = PRODUCT_DEFINITION_FORMATION_WITH_SPECIFIED_SOURCE ( 'ANY', '', #114, .NOT_KNOWN. ) ;
#114 = PRODUCT ( '55308', '55308', '', ( #27 ) ) ;
#115 = ADVANCED_FACE ( 'NONE', ( #174, #26 ), #43, .T. ) ;
#116 = EDGE_LOOP ( 'NONE', ( #5 ) ) ;
#117 = EDGE_LOOP ( 'NONE', ( #186 ) ) ;
#118 = CC_DESIGN_PERSON_AND_ORGANIZATION_ASSIGNMENT ( #203, #189, ( #21 ) ) ;
#119 = ORIENTED_EDGE ( 'NONE', *, *, #140, .T. ) ;
#120 = LOCAL_TIME ( 7, 14, 24.00000000000000000, #52 ) ;
#121 = ORIENTED_EDGE ( 'NONE', *, *, #57, .F. ) ;
#122 = ADVANCED_FACE ( 'NONE', ( #153, #8 ), #143, .T. ) ;
#123 = CARTESIAN_POINT ( 'NONE',  ( 1.047444401652940007E-13, -3.673940397442059178E-15, 30.00000000000000000 ) ) ;
#124 = DIRECTION ( 'NONE',  ( 0.0000000000000000000, 1.000000000000000000, 0.0000000000000000000 ) ) ;
#125 = DIRECTION ( 'NONE',  ( -3.491481338843133355E-15, 1.224646799147353207E-16, -1.000000000000000000 ) ) ;
#126 = CARTESIAN_POINT ( 'NONE',  ( 5.874102188025331801E-16, -2.060357694712252791E-17, 0.1682409733277181463 ) ) ;
#127 = CYLINDRICAL_SURFACE ( 'NONE', #182, 0.4999999999999980571 ) ;
#128 = DIRECTION ( 'NONE',  ( 3.491481338843133355E-15, -1.224646799147353207E-16, 1.000000000000000000 ) ) ;
#129 = CARTESIAN_POINT ( 'NONE',  ( 1.571166602479410010E-14, 0.2799999999999990274, 4.500000000000000000 ) ) ;
#130 = DATE_TIME_ROLE ( 'creation_date' ) ;
#131 = DATE_AND_TIME ( #58, #190 ) ;
#132 = LOCAL_TIME ( 7, 14, 24.00000000000000000, #208 ) ;
#133 = ADVANCED_FACE ( 'NONE', ( #71, #216 ), #176, .T. ) ;
#134 = EDGE_CURVE ( 'NONE', #28, #28, #137, .T. ) ;
#135 = EDGE_LOOP ( 'NONE', ( #207 ) ) ;
#136 = EDGE_LOOP ( 'NONE', ( #99 ) ) ;
#137 = CIRCLE ( 'NONE', #75, 0.4999999999999970024 ) ;
#138 = APPROVAL_PERSON_ORGANIZATION ( #151, #179, #66 ) ;
#139 = EDGE_LOOP ( 'NONE', ( #46 ) ) ;
#140 = EDGE_CURVE ( 'NONE', #11, #11, #40, .T. ) ;
#141 = CARTESIAN_POINT ( 'NONE',  ( 0.0000000000000000000, 0.0000000000000000000, 0.0000000000000000000 ) ) ;
#142 = PERSON ( 'UNSPECIFIED', 'UNSPECIFIED', 'UNSPECIFIED', ('UNSPECIFIED'), ('UNSPECIFIED'), ('UNSPECIFIED') ) ;
#143 = CYLINDRICAL_SURFACE ( 'NONE', #206, 0.2799999999999992495 ) ;
#144 = CARTESIAN_POINT ( 'NONE',  ( 5.874102188025331801E-16, -2.060357694712252791E-17, 0.1682409733277181463 ) ) ;
#145 = VERTEX_POINT ( 'NONE', #197 ) ;
#146 = ADVANCED_FACE ( 'NONE', ( #79 ), #105, .F. ) ;
#147 = CARTESIAN_POINT ( 'NONE',  ( 1.571166602479410010E-14, -5.510910596163088569E-16, 4.500000000000000000 ) ) ;
#148 = COORDINATED_UNIVERSAL_TIME_OFFSET ( 1, 0, .AHEAD. ) ;
#149 = AXIS2_PLACEMENT_3D ( 'NONE', #126, #159, #212 ) ;
#150 = EDGE_LOOP ( 'NONE', ( #191 ) ) ;
#151 = PERSON_AND_ORGANIZATION ( #142, #48 ) ;
#152 = LOCAL_TIME ( 7, 14, 24.00000000000000000, #94 ) ;
#153 = FACE_OUTER_BOUND ( 'NONE', #3, .T. ) ;
#154 = CARTESIAN_POINT ( 'NONE',  ( 1.857835088984720087E-14, -6.516408292826898860E-16, 5.321051177665165000 ) ) ;
#155 = DIRECTION ( 'NONE',  ( 1.000000000000000000, 0.0000000000000000000, 0.0000000000000000000 ) ) ;
#156 = ADVANCED_FACE ( 'NONE', ( #42 ), #218, .T. ) ;
#157 = CARTESIAN_POINT ( 'NONE',  ( 1.571166602479410010E-14, 0.2799999999999990274, 4.500000000000000000 ) ) ;
#158 = DIRECTION ( 'NONE',  ( -3.491481338843133355E-15, 1.224646799147353207E-16, -1.000000000000000000 ) ) ;
#159 = DIRECTION ( 'NONE',  ( 3.491481338843133355E-15, -1.224646799147353207E-16, 1.000000000000000000 ) ) ;
#160 = AXIS2_PLACEMENT_3D ( 'NONE', #144, #12, #24 ) ;
#161 = CARTESIAN_POINT ( 'NONE',  ( 1.047444401652940007E-13, 0.3999999999999953038, 30.00000000000000000 ) ) ;
#162 = APPROVAL ( #110, 'UNSPECIFIED' ) ;
#163 = CALENDAR_DATE ( 2021, 8, 10 ) ;
#164 =( GEOMETRIC_REPRESENTATION_CONTEXT ( 3 ) GLOBAL_UNCERTAINTY_ASSIGNED_CONTEXT ( ( #165 ) ) GLOBAL_UNIT_ASSIGNED_CONTEXT ( ( #173, #7, #67 ) ) REPRESENTATION_CONTEXT ( 'NONE', 'WORKASPACE' ) );
#165 = UNCERTAINTY_MEASURE_WITH_UNIT (LENGTH_MEASURE( 1.000000000000000082E-05 ), #173, 'distance_accuracy_value', 'NONE');
#166 = MANIFOLD_SOLID_BREP ( 'Corps-Déplacer/Copier1[2]', #112 ) ;
#167 = AXIS2_PLACEMENT_3D ( 'NONE', #29, #128, #14 ) ;
#168 = APPLICATION_CONTEXT ( 'configuration controlled 3d designs of mechanical parts and assemblies' ) ;
#169 = ORIENTED_EDGE ( 'NONE', *, *, #81, .T. ) ;
#170 = PERSON_AND_ORGANIZATION ( #142, #48 ) ;
#171 = DATE_AND_TIME ( #96, #120 ) ;
#172 = DIRECTION ( 'NONE',  ( -3.491481338843133355E-15, 1.224646799147353207E-16, -1.000000000000000000 ) ) ;
#173 =( LENGTH_UNIT ( ) NAMED_UNIT ( * ) SI_UNIT ( .MILLI., .METRE. ) );
#174 = FACE_BOUND ( 'NONE', #150, .T. ) ;
#175 = CARTESIAN_POINT ( 'NONE',  ( 5.874102188025332788E-16, 0.2799999999999990274, 0.1682409733277181740 ) ) ;
#176 = CONICAL_SURFACE ( 'NONE', #200, 0.3999999999999989675, 0.7853981633974694843 ) ;
#177 = DIRECTION ( 'NONE',  ( -3.491481338843133355E-15, 1.224646799147353207E-16, -1.000000000000000000 ) ) ;
#178 = DIRECTION ( 'NONE',  ( -4.275831445896958607E-31, -1.000000000000000000, -1.224646799147353207E-16 ) ) ;
#179 = APPROVAL ( #6, 'UNSPECIFIED' ) ;
#180 = PERSON_AND_ORGANIZATION_ROLE ( 'design_owner' ) ;
#181 = APPROVAL_ROLE ( '' ) ;
#182 = AXIS2_PLACEMENT_3D ( 'NONE', #141, #125, #85 ) ;
#183 = CARTESIAN_POINT ( 'NONE',  ( 1.047444401652940007E-13, -3.673940397442059178E-15, 30.00000000000000000 ) ) ;
#184 = CC_DESIGN_PERSON_AND_ORGANIZATION_ASSIGNMENT ( #35, #70, ( #113 ) ) ;
#185 = CARTESIAN_POINT ( 'NONE',  ( 1.571166602479410010E-14, -5.510910596163088569E-16, 4.500000000000000000 ) ) ;
#186 = ORIENTED_EDGE ( 'NONE', *, *, #140, .F. ) ;
#187 = CC_DESIGN_SECURITY_CLASSIFICATION ( #21, ( #113 ) ) ;
#188 = ADVANCED_FACE ( 'NONE', ( #56 ), #49, .T. ) ;
#189 = PERSON_AND_ORGANIZATION_ROLE ( 'classification_officer' ) ;
#190 = LOCAL_TIME ( 7, 14, 24.00000000000000000, #148 ) ;
#191 = ORIENTED_EDGE ( 'NONE', *, *, #17, .F. ) ;
#192 = EDGE_LOOP ( 'NONE', ( #169 ) ) ;
#193 = APPROVAL_ROLE ( '' ) ;
#194 = PLANE ( 'NONE',  #15 ) ;
#195 = AXIS2_PLACEMENT_3D ( 'NONE', #183, #60, #87 ) ;
#196 = DIRECTION ( 'NONE',  ( 3.491481338843133355E-15, -1.224646799147353207E-16, 1.000000000000000000 ) ) ;
#197 = CARTESIAN_POINT ( 'NONE',  ( 1.043952920314096936E-13, 0.4999999999999954481, 29.90000000000000213 ) ) ;
#198 = AXIS2_PLACEMENT_3D ( 'NONE', #90, #18, #178 ) ;
#199 = AXIS2_PLACEMENT_3D ( 'NONE', #185, #33, #53 ) ;
#200 = AXIS2_PLACEMENT_3D ( 'NONE', #123, #158, #73 ) ;
#201 = EDGE_CURVE ( 'NONE', #77, #77, #213, .T. ) ;
#202 = ORIENTED_EDGE ( 'NONE', *, *, #201, .T. ) ;
#203 = PERSON_AND_ORGANIZATION ( #142, #48 ) ;
#204 = APPLICATION_CONTEXT ( 'configuration controlled 3d designs of mechanical parts and assemblies' ) ;
#205 = SECURITY_CLASSIFICATION_LEVEL ( 'unclassified' ) ;
#206 = AXIS2_PLACEMENT_3D ( 'NONE', #104, #209, #10 ) ;
#207 = ORIENTED_EDGE ( 'NONE', *, *, #17, .T. ) ;
#208 = COORDINATED_UNIVERSAL_TIME_OFFSET ( 1, 0, .AHEAD. ) ;
#209 = DIRECTION ( 'NONE',  ( -3.491481338843133355E-15, 1.224646799147353207E-16, -1.000000000000000000 ) ) ;
#210 = FACE_OUTER_BOUND ( 'NONE', #65, .T. ) ;
#211 = CLOSED_SHELL ( 'NONE', ( #146, #115, #92, #133, #45 ) ) ;
#212 = DIRECTION ( 'NONE',  ( -3.439160614977218829E-31, -1.000000000000000000, -9.680376540049180364E-17 ) ) ;
#213 = CIRCLE ( 'NONE', #98, 0.2799999999999995270 ) ;
#214 = DATE_AND_TIME ( #36, #132 ) ;
#215 = CALENDAR_DATE ( 2021, 8, 10 ) ;
#216 = FACE_BOUND ( 'NONE', #1, .T. ) ;
#217 = APPROVAL_DATE_TIME ( #101, #162 ) ;
#218 = PLANE ( 'NONE',  #167 ) ;
#219 = PERSON_AND_ORGANIZATION ( #142, #48 ) ;
#220 = CC_DESIGN_PERSON_AND_ORGANIZATION_ASSIGNMENT ( #44, #180, ( #114 ) ) ;
#221 = DIRECTION ( 'NONE',  ( 0.0000000000000000000, 1.000000000000000000, 0.0000000000000000000 ) ) ;
#222 = APPROVAL_PERSON_ORGANIZATION ( #219, #162, #193 ) ;
#223 = PRODUCT_DEFINITION ( 'UNKNOWN', '', #113, #34 ) ;
ENDSEC;
END-ISO-10303-21;
