ISO-10303-21;
HEADER;
FILE_DESCRIPTION (( 'STEP AP203' ),
    '1' );
FILE_NAME ('55307.step',
    '2021-10-08T05:14:23',
    ( '' ),
    ( '' ),
    'SwSTEP 2.0',
    'SolidWorks 2019',
    '' );
FILE_SCHEMA (( 'CONFIG_CONTROL_DESIGN' ));
ENDSEC;

DATA;
#1 = ORIENTED_EDGE ( 'NONE', *, *, #206, .T. ) ;
#2 = ORGANIZATION ( 'UNSPECIFIED', 'UNSPECIFIED', '' ) ;
#3 = CIRCLE ( 'NONE', #144, 0.4999999999999970024 ) ;
#4 =( NAMED_UNIT ( * ) SI_UNIT ( $, .STERADIAN. ) SOLID_ANGLE_UNIT ( ) );
#5 = EDGE_LOOP ( 'NONE', ( #147 ) ) ;
#6 = FACE_OUTER_BOUND ( 'NONE', #108, .T. ) ;
#7 = ORIENTED_EDGE ( 'NONE', *, *, #18, .T. ) ;
#8 = PLANE ( 'NONE',  #30 ) ;
#9 = CARTESIAN_POINT ( 'NONE',  ( 5.769207506096308970E-16, 0.2749999999999989675, 0.1652366702325803183 ) ) ;
#10 = EDGE_LOOP ( 'NONE', ( #70 ) ) ;
#11 = DIRECTION ( 'NONE',  ( 0.0000000000000000000, 1.000000000000000000, 0.0000000000000000000 ) ) ;
#12 = ADVANCED_FACE ( 'NONE', ( #58 ), #96, .F. ) ;
#13 = AXIS2_PLACEMENT_3D ( 'NONE', #43, #54, #11 ) ;
#14 = DATE_AND_TIME ( #34, #139 ) ;
#15 = COORDINATED_UNIVERSAL_TIME_OFFSET ( 1, 0, .AHEAD. ) ;
#16 = APPROVAL_PERSON_ORGANIZATION ( #142, #76, #97 ) ;
#17 = APPROVAL_STATUS ( 'not_yet_approved' ) ;
#18 = EDGE_CURVE ( 'NONE', #41, #41, #87, .T. ) ;
#19 = LOCAL_TIME ( 7, 14, 23.00000000000000000, #192 ) ;
#20 = DIRECTION ( 'NONE',  ( 3.491481338843133355E-15, -1.224646799147353207E-16, 1.000000000000000000 ) ) ;
#21 = ADVANCED_FACE ( 'NONE', ( #173, #154 ), #152, .T. ) ;
#22 = CC_DESIGN_APPROVAL ( #110, ( #158 ) ) ;
#23 = VERTEX_POINT ( 'NONE', #150 ) ;
#24 = FACE_OUTER_BOUND ( 'NONE', #198, .T. ) ;
#25 = CIRCLE ( 'NONE', #13, 0.2749999999999997446 ) ;
#26 = EDGE_LOOP ( 'NONE', ( #94 ) ) ;
#27 = ORIENTED_EDGE ( 'NONE', *, *, #141, .T. ) ;
#28 = FACE_OUTER_BOUND ( 'NONE', #5, .T. ) ;
#29 = FACE_OUTER_BOUND ( 'NONE', #153, .T. ) ;
#30 = AXIS2_PLACEMENT_3D ( 'NONE', #148, #169, #218 ) ;
#31 = PERSON_AND_ORGANIZATION ( #50, #2 ) ;
#32 = DIRECTION ( 'NONE',  ( 1.000000000000000000, 0.0000000000000000000, 0.0000000000000000000 ) ) ;
#33 = PRODUCT_DEFINITION ( 'UNKNOWN', '', #158, #105 ) ;
#34 = CALENDAR_DATE ( 2021, 8, 10 ) ;
#35 = ADVANCED_FACE ( 'NONE', ( #28 ), #8, .F. ) ;
#36 = UNCERTAINTY_MEASURE_WITH_UNIT (LENGTH_MEASURE( 1.000000000000000082E-05 ), #74, 'distance_accuracy_value', 'NONE');
#37 = CLOSED_SHELL ( 'NONE', ( #12, #21, #223, #171, #35 ) ) ;
#38 = CARTESIAN_POINT ( 'NONE',  ( 1.864350281859840914E-14, -6.539260513205622067E-16, 5.339711431703009659 ) ) ;
#39 = CC_DESIGN_PERSON_AND_ORGANIZATION_ASSIGNMENT ( #138, #190, ( #158 ) ) ;
#40 = DIRECTION ( 'NONE',  ( 0.0000000000000000000, 1.000000000000000000, 0.0000000000000000000 ) ) ;
#41 = VERTEX_POINT ( 'NONE', #111 ) ;
#42 = AXIS2_PLACEMENT_3D ( 'NONE', #89, #200, #91 ) ;
#43 = CARTESIAN_POINT ( 'NONE',  ( 1.571166602479410325E-14, -5.510910596163089556E-16, 4.500000000000000888 ) ) ;
#44 = PERSON_AND_ORGANIZATION_ROLE ( 'design_owner' ) ;
#45 = CALENDAR_DATE ( 2021, 8, 10 ) ;
#46 = LOCAL_TIME ( 7, 14, 23.00000000000000000, #15 ) ;
#47 = SECURITY_CLASSIFICATION_LEVEL ( 'unclassified' ) ;
#48 = PERSON_AND_ORGANIZATION ( #50, #2 ) ;
#49 = APPLICATION_CONTEXT ( 'configuration controlled 3d designs of mechanical parts and assemblies' ) ;
#50 = PERSON ( 'UNSPECIFIED', 'UNSPECIFIED', 'UNSPECIFIED', ('UNSPECIFIED'), ('UNSPECIFIED'), ('UNSPECIFIED') ) ;
#51 = FACE_OUTER_BOUND ( 'NONE', #10, .T. ) ;
#52 = DIRECTION ( 'NONE',  ( 3.491481338843133355E-15, -1.224646799147353207E-16, 1.000000000000000000 ) ) ;
#53 = EDGE_CURVE ( 'NONE', #93, #93, #209, .T. ) ;
#54 = DIRECTION ( 'NONE',  ( -3.491481338843133355E-15, 1.224646799147353207E-16, -1.000000000000000000 ) ) ;
#55 = FACE_BOUND ( 'NONE', #115, .T. ) ;
#56 = AXIS2_PLACEMENT_3D ( 'NONE', #95, #217, #72 ) ;
#57 = CC_DESIGN_PERSON_AND_ORGANIZATION_ASSIGNMENT ( #31, #125, ( #158 ) ) ;
#58 = FACE_OUTER_BOUND ( 'NONE', #26, .T. ) ;
#59 = MANIFOLD_SOLID_BREP ( 'Corps-Déplacer/Copier1[2]', #188 ) ;
#60 = APPLICATION_PROTOCOL_DEFINITION ( 'international standard', 'config_control_design', 1994, #49 ) ;
#61 = PERSON_AND_ORGANIZATION ( #50, #2 ) ;
#62 = APPROVAL_PERSON_ORGANIZATION ( #80, #110, #65 ) ;
#63 = MANIFOLD_SOLID_BREP ( 'Corps-Déplacer/Copier1[1]', #37 ) ;
#64 = COORDINATED_UNIVERSAL_TIME_OFFSET ( 1, 0, .AHEAD. ) ;
#65 = APPROVAL_ROLE ( '' ) ;
#66 = AXIS2_PLACEMENT_3D ( 'NONE', #146, #119, #133 ) ;
#67 = CARTESIAN_POINT ( 'NONE',  ( 1.043952920314096936E-13, -3.661693929450586610E-15, 29.90000000000000213 ) ) ;
#68 = EDGE_CURVE ( 'NONE', #180, #180, #69, .T. ) ;
#69 = CIRCLE ( 'NONE', #167, 0.4999999999999991673 ) ;
#70 = ORIENTED_EDGE ( 'NONE', *, *, #68, .T. ) ;
#71 =( GEOMETRIC_REPRESENTATION_CONTEXT ( 3 ) GLOBAL_UNCERTAINTY_ASSIGNED_CONTEXT ( ( #36 ) ) GLOBAL_UNIT_ASSIGNED_CONTEXT ( ( #74, #78, #4 ) ) REPRESENTATION_CONTEXT ( 'NONE', 'WORKASPACE' ) );
#72 = DIRECTION ( 'NONE',  ( 3.501690807976805717E-31, 1.000000000000000000, 9.856383386231895805E-17 ) ) ;
#73 = ORIENTED_EDGE ( 'NONE', *, *, #68, .F. ) ;
#74 =( LENGTH_UNIT ( ) NAMED_UNIT ( * ) SI_UNIT ( .MILLI., .METRE. ) );
#75 = ORIENTED_EDGE ( 'NONE', *, *, #141, .F. ) ;
#76 = APPROVAL ( #175, 'UNSPECIFIED' ) ;
#77 = CARTESIAN_POINT ( 'NONE',  ( 1.864350281859840914E-14, 0.4999999999999963363, 5.339711431703009659 ) ) ;
#78 =( NAMED_UNIT ( * ) PLANE_ANGLE_UNIT ( ) SI_UNIT ( $, .RADIAN. ) );
#79 = LOCAL_TIME ( 7, 14, 23.00000000000000000, #187 ) ;
#80 = PERSON_AND_ORGANIZATION ( #50, #2 ) ;
#81 = DATE_AND_TIME ( #176, #19 ) ;
#82 = AXIS2_PLACEMENT_3D ( 'NONE', #160, #20, #112 ) ;
#83 = DATE_AND_TIME ( #205, #79 ) ;
#84 = DATE_AND_TIME ( #45, #85 ) ;
#85 = LOCAL_TIME ( 7, 14, 23.00000000000000000, #124 ) ;
#86 = CARTESIAN_POINT ( 'NONE',  ( 1.571166602479410325E-14, -5.510910596163089556E-16, 4.500000000000000888 ) ) ;
#87 = CIRCLE ( 'NONE', #129, 0.3999999999999989675 ) ;
#88 = CC_DESIGN_PERSON_AND_ORGANIZATION_ASSIGNMENT ( #61, #44, ( #100 ) ) ;
#89 = CARTESIAN_POINT ( 'NONE',  ( 1.571166602479410325E-14, -1.041590079118783446E-31, 4.500000000000000888 ) ) ;
#90 = EDGE_LOOP ( 'NONE', ( #1 ) ) ;
#91 = DIRECTION ( 'NONE',  ( -4.275831445896958607E-31, -1.000000000000000000, -1.224646799147353207E-16 ) ) ;
#92 = AXIS2_PLACEMENT_3D ( 'NONE', #143, #199, #32 ) ;
#93 = VERTEX_POINT ( 'NONE', #183 ) ;
#94 = ORIENTED_EDGE ( 'NONE', *, *, #53, .T. ) ;
#95 = CARTESIAN_POINT ( 'NONE',  ( 5.769207506096307984E-16, -2.023565593020961825E-17, 0.1652366702325802905 ) ) ;
#96 = PLANE ( 'NONE',  #207 ) ;
#97 = APPROVAL_ROLE ( '' ) ;
#98 = DIRECTION ( 'NONE',  ( 0.0000000000000000000, 1.000000000000000000, 0.0000000000000000000 ) ) ;
#99 = PERSON_AND_ORGANIZATION ( #50, #2 ) ;
#100 = PRODUCT ( '55307', '55307', '', ( #220 ) ) ;
#101 = DATE_TIME_ROLE ( 'classification_date' ) ;
#102 = PRODUCT_RELATED_PRODUCT_CATEGORY ( 'detail', '', ( #100 ) ) ;
#103 = PERSON_AND_ORGANIZATION_ROLE ( 'creator' ) ;
#104 = DIRECTION ( 'NONE',  ( 0.0000000000000000000, 1.000000000000000000, 0.0000000000000000000 ) ) ;
#105 = DESIGN_CONTEXT ( 'detailed design', #49, 'design' ) ;
#106 = DIRECTION ( 'NONE',  ( 0.0000000000000000000, 1.000000000000000000, 0.0000000000000000000 ) ) ;
#107 = CONICAL_SURFACE ( 'NONE', #66, 0.3999999999999989675, 0.7853981633974694843 ) ;
#108 = EDGE_LOOP ( 'NONE', ( #201 ) ) ;
#109 = CC_DESIGN_APPROVAL ( #76, ( #221 ) ) ;
#110 = APPROVAL ( #155, 'UNSPECIFIED' ) ;
#111 = CARTESIAN_POINT ( 'NONE',  ( 1.047444401652940007E-13, 0.3999999999999953038, 30.00000000000000000 ) ) ;
#112 = DIRECTION ( 'NONE',  ( -3.501690807976805717E-31, -1.000000000000000000, -9.856383386231895805E-17 ) ) ;
#113 = ORIENTED_EDGE ( 'NONE', *, *, #191, .F. ) ;
#114 = DIRECTION ( 'NONE',  ( -3.491481338843133355E-15, 1.224646799147353207E-16, -1.000000000000000000 ) ) ;
#115 = EDGE_LOOP ( 'NONE', ( #7 ) ) ;
#116 = CARTESIAN_POINT ( 'NONE',  ( 1.571166602479410325E-14, -1.041590079118783446E-31, 4.500000000000000888 ) ) ;
#117 = AXIS2_PLACEMENT_3D ( 'NONE', #210, #131, #170 ) ;
#118 = FACE_OUTER_BOUND ( 'NONE', #213, .T. ) ;
#119 = DIRECTION ( 'NONE',  ( -3.491481338843133355E-15, 1.224646799147353207E-16, -1.000000000000000000 ) ) ;
#120 = ADVANCED_FACE ( 'NONE', ( #165 ), #208, .T. ) ;
#121 = CARTESIAN_POINT ( 'NONE',  ( 1.047444401652940007E-13, -3.673940397442059178E-15, 30.00000000000000000 ) ) ;
#122 = APPROVAL_DATE_TIME ( #81, #110 ) ;
#123 = CC_DESIGN_SECURITY_CLASSIFICATION ( #221, ( #158 ) ) ;
#124 = COORDINATED_UNIVERSAL_TIME_OFFSET ( 1, 0, .AHEAD. ) ;
#125 = PERSON_AND_ORGANIZATION_ROLE ( 'design_supplier' ) ;
#126 = ADVANCED_FACE ( 'NONE', ( #214 ), #135, .T. ) ;
#127 = CC_DESIGN_APPROVAL ( #156, ( #33 ) ) ;
#128 = CC_DESIGN_DATE_AND_TIME_ASSIGNMENT ( #14, #101, ( #221 ) ) ;
#129 = AXIS2_PLACEMENT_3D ( 'NONE', #121, #189, #98 ) ;
#130 = CYLINDRICAL_SURFACE ( 'NONE', #117, 0.4999999999999980571 ) ;
#131 = DIRECTION ( 'NONE',  ( -3.491481338843133355E-15, 1.224646799147353207E-16, -1.000000000000000000 ) ) ;
#132 = DIRECTION ( 'NONE',  ( -3.491481338843133355E-15, 1.224646799147353207E-16, -1.000000000000000000 ) ) ;
#133 = DIRECTION ( 'NONE',  ( 0.0000000000000000000, 1.000000000000000000, 0.0000000000000000000 ) ) ;
#134 = DIRECTION ( 'NONE',  ( -4.275831445896958607E-31, -1.000000000000000000, -1.224646799147353207E-16 ) ) ;
#135 = PLANE ( 'NONE',  #42 ) ;
#136 = APPROVAL_ROLE ( '' ) ;
#137 = DIRECTION ( 'NONE',  ( 3.491481338843133355E-15, -1.224646799147353207E-16, 1.000000000000000000 ) ) ;
#138 = PERSON_AND_ORGANIZATION ( #50, #2 ) ;
#139 = LOCAL_TIME ( 7, 14, 23.00000000000000000, #64 ) ;
#140 = SHAPE_DEFINITION_REPRESENTATION ( #204, #166 ) ;
#141 = EDGE_CURVE ( 'NONE', #168, #168, #3, .T. ) ;
#142 = PERSON_AND_ORGANIZATION ( #50, #2 ) ;
#143 = CARTESIAN_POINT ( 'NONE',  ( 0.0000000000000000000, 0.0000000000000000000, 0.0000000000000000000 ) ) ;
#144 = AXIS2_PLACEMENT_3D ( 'NONE', #38, #114, #40 ) ;
#145 = CC_DESIGN_PERSON_AND_ORGANIZATION_ASSIGNMENT ( #99, #177, ( #221 ) ) ;
#146 = CARTESIAN_POINT ( 'NONE',  ( 1.047444401652940007E-13, -3.673940397442059178E-15, 30.00000000000000000 ) ) ;
#147 = ORIENTED_EDGE ( 'NONE', *, *, #18, .F. ) ;
#148 = CARTESIAN_POINT ( 'NONE',  ( 1.047444401652940007E-13, 2.999519565323652267E-33, 30.00000000000000000 ) ) ;
#149 = CARTESIAN_POINT ( 'NONE',  ( 1.864350281859840914E-14, -6.539260513205622067E-16, 5.339711431703009659 ) ) ;
#150 = CARTESIAN_POINT ( 'NONE',  ( 1.571166602479410325E-14, 0.2749999999999991895, 4.500000000000000888 ) ) ;
#151 = ORIENTED_EDGE ( 'NONE', *, *, #53, .F. ) ;
#152 = CONICAL_SURFACE ( 'NONE', #211, 0.4999999999999970024, 0.2617993877991428575 ) ;
#153 = EDGE_LOOP ( 'NONE', ( #75 ) ) ;
#154 = FACE_OUTER_BOUND ( 'NONE', #202, .T. ) ;
#155 = APPROVAL_STATUS ( 'not_yet_approved' ) ;
#156 = APPROVAL ( #17, 'UNSPECIFIED' ) ;
#157 = DATE_AND_TIME ( #159, #46 ) ;
#158 = PRODUCT_DEFINITION_FORMATION_WITH_SPECIFIED_SOURCE ( 'ANY', '', #100, .NOT_KNOWN. ) ;
#159 = CALENDAR_DATE ( 2021, 8, 10 ) ;
#160 = CARTESIAN_POINT ( 'NONE',  ( 5.769207506096307984E-16, -2.023565593020961825E-17, 0.1652366702325802905 ) ) ;
#161 = DIRECTION ( 'NONE',  ( -3.491481338843133355E-15, 1.224646799147353207E-16, -1.000000000000000000 ) ) ;
#162 = VERTEX_POINT ( 'NONE', #9 ) ;
#163 = EDGE_LOOP ( 'NONE', ( #151 ) ) ;
#164 = CARTESIAN_POINT ( 'NONE',  ( 0.0000000000000000000, 0.0000000000000000000, 0.0000000000000000000 ) ) ;
#165 = FACE_OUTER_BOUND ( 'NONE', #90, .T. ) ;
#166 = ADVANCED_BREP_SHAPE_REPRESENTATION ( '55307', ( #63, #59, #92 ), #71 ) ;
#167 = AXIS2_PLACEMENT_3D ( 'NONE', #67, #195, #106 ) ;
#168 = VERTEX_POINT ( 'NONE', #77 ) ;
#169 = DIRECTION ( 'NONE',  ( -3.491481338843133355E-15, 1.224646799147353207E-16, -1.000000000000000000 ) ) ;
#170 = DIRECTION ( 'NONE',  ( 4.275831445896958607E-31, 1.000000000000000000, 1.224646799147353207E-16 ) ) ;
#171 = ADVANCED_FACE ( 'NONE', ( #118, #55 ), #107, .T. ) ;
#172 = PERSON_AND_ORGANIZATION ( #50, #2 ) ;
#173 = FACE_BOUND ( 'NONE', #163, .T. ) ;
#174 = APPROVAL_DATE_TIME ( #83, #156 ) ;
#175 = APPROVAL_STATUS ( 'not_yet_approved' ) ;
#176 = CALENDAR_DATE ( 2021, 8, 10 ) ;
#177 = PERSON_AND_ORGANIZATION_ROLE ( 'classification_officer' ) ;
#178 = AXIS2_PLACEMENT_3D ( 'NONE', #86, #161, #104 ) ;
#179 = DIRECTION ( 'NONE',  ( 4.275831445896958607E-31, 1.000000000000000000, 1.224646799147353207E-16 ) ) ;
#180 = VERTEX_POINT ( 'NONE', #203 ) ;
#181 = ORIENTED_EDGE ( 'NONE', *, *, #206, .F. ) ;
#182 = AXIS2_PLACEMENT_3D ( 'NONE', #164, #132, #179 ) ;
#183 = CARTESIAN_POINT ( 'NONE',  ( 1.571166602479410325E-14, 0.2749999999999991895, 4.500000000000000888 ) ) ;
#184 = APPLICATION_CONTEXT ( 'configuration controlled 3d designs of mechanical parts and assemblies' ) ;
#185 = ADVANCED_FACE ( 'NONE', ( #24, #6 ), #186, .T. ) ;
#186 = CYLINDRICAL_SURFACE ( 'NONE', #182, 0.2749999999999993561 ) ;
#187 = COORDINATED_UNIVERSAL_TIME_OFFSET ( 1, 0, .AHEAD. ) ;
#188 = CLOSED_SHELL ( 'NONE', ( #120, #185, #126 ) ) ;
#189 = DIRECTION ( 'NONE',  ( -3.491481338843133355E-15, 1.224646799147353207E-16, -1.000000000000000000 ) ) ;
#190 = PERSON_AND_ORGANIZATION_ROLE ( 'creator' ) ;
#191 = EDGE_CURVE ( 'NONE', #23, #23, #25, .T. ) ;
#192 = COORDINATED_UNIVERSAL_TIME_OFFSET ( 1, 0, .AHEAD. ) ;
#193 = DATE_TIME_ROLE ( 'creation_date' ) ;
#194 = APPROVAL_PERSON_ORGANIZATION ( #172, #156, #136 ) ;
#195 = DIRECTION ( 'NONE',  ( -3.491481338843133355E-15, 1.224646799147353207E-16, -1.000000000000000000 ) ) ;
#196 = CIRCLE ( 'NONE', #56, 0.2749999999999989675 ) ;
#197 = CC_DESIGN_DATE_AND_TIME_ASSIGNMENT ( #84, #193, ( #33 ) ) ;
#198 = EDGE_LOOP ( 'NONE', ( #181 ) ) ;
#199 = DIRECTION ( 'NONE',  ( 0.0000000000000000000, 0.0000000000000000000, 1.000000000000000000 ) ) ;
#200 = DIRECTION ( 'NONE',  ( 3.491481338843133355E-15, -1.224646799147353207E-16, 1.000000000000000000 ) ) ;
#201 = ORIENTED_EDGE ( 'NONE', *, *, #191, .T. ) ;
#202 = EDGE_LOOP ( 'NONE', ( #27 ) ) ;
#203 = CARTESIAN_POINT ( 'NONE',  ( 1.043952920314096936E-13, 0.4999999999999954481, 29.90000000000000213 ) ) ;
#204 = PRODUCT_DEFINITION_SHAPE ( 'NONE', 'NONE',  #33 ) ;
#205 = CALENDAR_DATE ( 2021, 8, 10 ) ;
#206 = EDGE_CURVE ( 'NONE', #162, #162, #196, .T. ) ;
#207 = AXIS2_PLACEMENT_3D ( 'NONE', #116, #137, #134 ) ;
#208 = CONICAL_SURFACE ( 'NONE', #82, 0.2749999999999989675, 1.029744258676649649 ) ;
#209 = CIRCLE ( 'NONE', #178, 0.2749999999999997446 ) ;
#210 = CARTESIAN_POINT ( 'NONE',  ( 0.0000000000000000000, 0.0000000000000000000, 0.0000000000000000000 ) ) ;
#211 = AXIS2_PLACEMENT_3D ( 'NONE', #149, #52, #212 ) ;
#212 = DIRECTION ( 'NONE',  ( 0.0000000000000000000, -1.000000000000000000, 0.0000000000000000000 ) ) ;
#213 = EDGE_LOOP ( 'NONE', ( #73 ) ) ;
#214 = FACE_OUTER_BOUND ( 'NONE', #215, .T. ) ;
#215 = EDGE_LOOP ( 'NONE', ( #113 ) ) ;
#216 = CC_DESIGN_PERSON_AND_ORGANIZATION_ASSIGNMENT ( #48, #103, ( #33 ) ) ;
#217 = DIRECTION ( 'NONE',  ( -3.491481338843133355E-15, 1.224646799147353207E-16, -1.000000000000000000 ) ) ;
#218 = DIRECTION ( 'NONE',  ( 4.275831445896958607E-31, 1.000000000000000000, 1.224646799147353207E-16 ) ) ;
#219 = APPLICATION_PROTOCOL_DEFINITION ( 'international standard', 'config_control_design', 1994, #184 ) ;
#220 = MECHANICAL_CONTEXT ( 'NONE', #184, 'mechanical' ) ;
#221 = SECURITY_CLASSIFICATION ( '', '', #47 ) ;
#222 = APPROVAL_DATE_TIME ( #157, #76 ) ;
#223 = ADVANCED_FACE ( 'NONE', ( #29, #51 ), #130, .T. ) ;
ENDSEC;
END-ISO-10303-21;
