ISO-10303-21;
HEADER;
FILE_DESCRIPTION (( 'STEP AP203' ),
    '1' );
FILE_NAME ('55306.step',
    '2021-10-08T05:14:22',
    ( '' ),
    ( '' ),
    'SwSTEP 2.0',
    'SolidWorks 2019',
    '' );
FILE_SCHEMA (( 'CONFIG_CONTROL_DESIGN' ));
ENDSEC;

DATA;
#1 = CLOSED_SHELL ( 'NONE', ( #48, #180, #198 ) ) ;
#2 = CONICAL_SURFACE ( 'NONE', #105, 0.3999999999999989675, 0.7853981633974694843 ) ;
#3 = PRODUCT_RELATED_PRODUCT_CATEGORY ( 'detail', '', ( #218 ) ) ;
#4 = APPROVAL_DATE_TIME ( #127, #18 ) ;
#5 = VERTEX_POINT ( 'NONE', #120 ) ;
#6 = CARTESIAN_POINT ( 'NONE',  ( 1.571166602479410010E-14, 0.2699999999999989631, 4.500000000000000000 ) ) ;
#7 = CARTESIAN_POINT ( 'NONE',  ( 1.047444401652940007E-13, 0.3999999999999953038, 30.00000000000000000 ) ) ;
#8 = EDGE_LOOP ( 'NONE', ( #93 ) ) ;
#9 = CIRCLE ( 'NONE', #201, 0.2699999999999995182 ) ;
#10 = DIRECTION ( 'NONE',  ( 0.0000000000000000000, 0.0000000000000000000, 1.000000000000000000 ) ) ;
#11 = COORDINATED_UNIVERSAL_TIME_OFFSET ( 1, 0, .AHEAD. ) ;
#12 = DESIGN_CONTEXT ( 'detailed design', #209, 'design' ) ;
#13 = APPROVAL_DATE_TIME ( #29, #134 ) ;
#14 = AXIS2_PLACEMENT_3D ( 'NONE', #75, #17, #115 ) ;
#15 = CIRCLE ( 'NONE', #59, 0.4999999999999970024 ) ;
#16 = CARTESIAN_POINT ( 'NONE',  ( 1.571166602479410010E-14, -5.510910596163088569E-16, 4.500000000000000000 ) ) ;
#17 = DIRECTION ( 'NONE',  ( 3.491481338843133355E-15, -1.224646799147353207E-16, 1.000000000000000000 ) ) ;
#18 = APPROVAL ( #92, 'UNSPECIFIED' ) ;
#19 = ORIENTED_EDGE ( 'NONE', *, *, #52, .T. ) ;
#20 = DIRECTION ( 'NONE',  ( -3.491481338843133355E-15, 1.224646799147353207E-16, -1.000000000000000000 ) ) ;
#21 = DIRECTION ( 'NONE',  ( 4.275831445896958607E-31, 1.000000000000000000, 1.224646799147353207E-16 ) ) ;
#22 = ORIENTED_EDGE ( 'NONE', *, *, #191, .F. ) ;
#23 = CC_DESIGN_DATE_AND_TIME_ASSIGNMENT ( #164, #141, ( #193 ) ) ;
#24 = APPROVAL_PERSON_ORGANIZATION ( #143, #134, #163 ) ;
#25 = EDGE_CURVE ( 'NONE', #205, #205, #9, .T. ) ;
#26 = AXIS2_PLACEMENT_3D ( 'NONE', #74, #10, #55 ) ;
#27 = VERTEX_POINT ( 'NONE', #6 ) ;
#28 = LOCAL_TIME ( 7, 14, 22.00000000000000000, #57 ) ;
#29 = DATE_AND_TIME ( #194, #173 ) ;
#30 = PERSON_AND_ORGANIZATION ( #136, #206 ) ;
#31 = CLOSED_SHELL ( 'NONE', ( #119, #161, #153, #104, #207 ) ) ;
#32 = AXIS2_PLACEMENT_3D ( 'NONE', #189, #175, #82 ) ;
#33 = EDGE_LOOP ( 'NONE', ( #19 ) ) ;
#34 = FACE_OUTER_BOUND ( 'NONE', #128, .T. ) ;
#35 = PLANE ( 'NONE',  #14 ) ;
#36 = CARTESIAN_POINT ( 'NONE',  ( 1.047444401652940007E-13, -3.673940397442059178E-15, 30.00000000000000000 ) ) ;
#37 = LOCAL_TIME ( 7, 14, 22.00000000000000000, #167 ) ;
#38 = AXIS2_PLACEMENT_3D ( 'NONE', #132, #61, #116 ) ;
#39 = DIRECTION ( 'NONE',  ( 4.275831445896958607E-31, 1.000000000000000000, 1.224646799147353207E-16 ) ) ;
#40 = EDGE_CURVE ( 'NONE', #27, #27, #126, .T. ) ;
#41 = AXIS2_PLACEMENT_3D ( 'NONE', #145, #195, #147 ) ;
#42 = FACE_BOUND ( 'NONE', #86, .T. ) ;
#43 = EDGE_LOOP ( 'NONE', ( #22 ) ) ;
#44 = DIRECTION ( 'NONE',  ( 3.491481338843133355E-15, -1.224646799147353207E-16, 1.000000000000000000 ) ) ;
#45 = FACE_OUTER_BOUND ( 'NONE', #64, .T. ) ;
#46 = CC_DESIGN_PERSON_AND_ORGANIZATION_ASSIGNMENT ( #190, #176, ( #148 ) ) ;
#47 = EDGE_LOOP ( 'NONE', ( #223 ) ) ;
#48 = ADVANCED_FACE ( 'NONE', ( #216 ), #142, .T. ) ;
#49 = CC_DESIGN_DATE_AND_TIME_ASSIGNMENT ( #122, #113, ( #219 ) ) ;
#50 = CARTESIAN_POINT ( 'NONE',  ( 1.043952920314096936E-13, 0.4999999999999954481, 29.90000000000000213 ) ) ;
#51 = APPROVAL_ROLE ( '' ) ;
#52 = EDGE_CURVE ( 'NONE', #102, #102, #15, .T. ) ;
#53 = UNCERTAINTY_MEASURE_WITH_UNIT (LENGTH_MEASURE( 1.000000000000000082E-05 ), #174, 'distance_accuracy_value', 'NONE');
#54 = APPROVAL_PERSON_ORGANIZATION ( #30, #94, #51 ) ;
#55 = DIRECTION ( 'NONE',  ( 1.000000000000000000, 0.0000000000000000000, 0.0000000000000000000 ) ) ;
#56 = PERSON_AND_ORGANIZATION_ROLE ( 'creator' ) ;
#57 = COORDINATED_UNIVERSAL_TIME_OFFSET ( 1, 0, .AHEAD. ) ;
#58 = DIRECTION ( 'NONE',  ( -3.491481338843133355E-15, 1.224646799147353207E-16, -1.000000000000000000 ) ) ;
#59 = AXIS2_PLACEMENT_3D ( 'NONE', #186, #166, #172 ) ;
#60 = DIRECTION ( 'NONE',  ( 0.0000000000000000000, 1.000000000000000000, 0.0000000000000000000 ) ) ;
#61 = DIRECTION ( 'NONE',  ( -3.491481338843133355E-15, 1.224646799147353207E-16, -1.000000000000000000 ) ) ;
#62 = MANIFOLD_SOLID_BREP ( 'Corps-Déplacer/Copier1[1]', #31 ) ;
#63 = CARTESIAN_POINT ( 'NONE',  ( 1.870865474734961426E-14, -6.562112733584345275E-16, 5.358371685740854318 ) ) ;
#64 = EDGE_LOOP ( 'NONE', ( #220 ) ) ;
#65 = AXIS2_PLACEMENT_3D ( 'NONE', #63, #72, #150 ) ;
#66 = CYLINDRICAL_SURFACE ( 'NONE', #156, 0.2699999999999992961 ) ;
#67 = SHAPE_DEFINITION_REPRESENTATION ( #79, #159 ) ;
#68 = PLANE ( 'NONE',  #152 ) ;
#69 = CC_DESIGN_APPROVAL ( #18, ( #148 ) ) ;
#70 = CARTESIAN_POINT ( 'NONE',  ( 1.047444401652940007E-13, 2.999519565323652267E-33, 30.00000000000000000 ) ) ;
#71 = VERTEX_POINT ( 'NONE', #50 ) ;
#72 = DIRECTION ( 'NONE',  ( 3.491481338843133355E-15, -1.224646799147353207E-16, 1.000000000000000000 ) ) ;
#73 = PERSON_AND_ORGANIZATION_ROLE ( 'design_owner' ) ;
#74 = CARTESIAN_POINT ( 'NONE',  ( 0.0000000000000000000, 0.0000000000000000000, 0.0000000000000000000 ) ) ;
#75 = CARTESIAN_POINT ( 'NONE',  ( 1.571166602479410010E-14, 2.024675706593496207E-33, 4.500000000000000000 ) ) ;
#76 = CC_DESIGN_PERSON_AND_ORGANIZATION_ASSIGNMENT ( #212, #210, ( #193 ) ) ;
#77 = EDGE_LOOP ( 'NONE', ( #81 ) ) ;
#78 = ORIENTED_EDGE ( 'NONE', *, *, #124, .T. ) ;
#79 = PRODUCT_DEFINITION_SHAPE ( 'NONE', 'NONE',  #219 ) ;
#80 = FACE_BOUND ( 'NONE', #8, .T. ) ;
#81 = ORIENTED_EDGE ( 'NONE', *, *, #87, .T. ) ;
#82 = DIRECTION ( 'NONE',  ( -4.275831445896958607E-31, -1.000000000000000000, -1.224646799147353207E-16 ) ) ;
#83 = CC_DESIGN_PERSON_AND_ORGANIZATION_ASSIGNMENT ( #139, #73, ( #218 ) ) ;
#84 = CC_DESIGN_APPROVAL ( #94, ( #193 ) ) ;
#85 = COORDINATED_UNIVERSAL_TIME_OFFSET ( 1, 0, .AHEAD. ) ;
#86 = EDGE_LOOP ( 'NONE', ( #78 ) ) ;
#87 = EDGE_CURVE ( 'NONE', #5, #5, #181, .T. ) ;
#88 = APPROVAL_STATUS ( 'not_yet_approved' ) ;
#89 = DIRECTION ( 'NONE',  ( -3.491481338843133355E-15, 1.224646799147353207E-16, -1.000000000000000000 ) ) ;
#90 = APPROVAL_ROLE ( '' ) ;
#91 = CARTESIAN_POINT ( 'NONE',  ( 5.664312824167286139E-16, -1.986773491329672400E-17, 0.1622323671374425180 ) ) ;
#92 = APPROVAL_STATUS ( 'not_yet_approved' ) ;
#93 = ORIENTED_EDGE ( 'NONE', *, *, #25, .F. ) ;
#94 = APPROVAL ( #213, 'UNSPECIFIED' ) ;
#95 = CARTESIAN_POINT ( 'NONE',  ( 0.0000000000000000000, 0.0000000000000000000, 0.0000000000000000000 ) ) ;
#96 = CARTESIAN_POINT ( 'NONE',  ( 0.0000000000000000000, 0.0000000000000000000, 0.0000000000000000000 ) ) ;
#97 = LOCAL_TIME ( 7, 14, 22.00000000000000000, #11 ) ;
#98 = FACE_OUTER_BOUND ( 'NONE', #43, .T. ) ;
#99 = FACE_OUTER_BOUND ( 'NONE', #117, .T. ) ;
#100 = DATE_AND_TIME ( #101, #187 ) ;
#101 = CALENDAR_DATE ( 2021, 8, 10 ) ;
#102 = VERTEX_POINT ( 'NONE', #204 ) ;
#103 = PLANE ( 'NONE',  #32 ) ;
#104 = ADVANCED_FACE ( 'NONE', ( #98, #42 ), #2, .T. ) ;
#105 = AXIS2_PLACEMENT_3D ( 'NONE', #36, #89, #165 ) ;
#106 = PERSON_AND_ORGANIZATION ( #136, #206 ) ;
#107 = SECURITY_CLASSIFICATION_LEVEL ( 'unclassified' ) ;
#108 = CIRCLE ( 'NONE', #38, 0.4999999999999991673 ) ;
#109 =( NAMED_UNIT ( * ) SI_UNIT ( $, .STERADIAN. ) SOLID_ANGLE_UNIT ( ) );
#110 = CALENDAR_DATE ( 2021, 8, 10 ) ;
#111 = DIRECTION ( 'NONE',  ( -3.491481338843133355E-15, 1.224646799147353207E-16, -1.000000000000000000 ) ) ;
#112 = AXIS2_PLACEMENT_3D ( 'NONE', #130, #200, #114 ) ;
#113 = DATE_TIME_ROLE ( 'creation_date' ) ;
#114 = DIRECTION ( 'NONE',  ( 3.566536934050449675E-31, 1.000000000000000000, 1.003890900449544776E-16 ) ) ;
#115 = DIRECTION ( 'NONE',  ( -4.275831445896958607E-31, -1.000000000000000000, -1.224646799147353207E-16 ) ) ;
#116 = DIRECTION ( 'NONE',  ( 0.0000000000000000000, 1.000000000000000000, 0.0000000000000000000 ) ) ;
#117 = EDGE_LOOP ( 'NONE', ( #125 ) ) ;
#118 = AXIS2_PLACEMENT_3D ( 'NONE', #144, #111, #60 ) ;
#119 = ADVANCED_FACE ( 'NONE', ( #34 ), #35, .F. ) ;
#120 = CARTESIAN_POINT ( 'NONE',  ( 5.664312824167287125E-16, 0.2699999999999990186, 0.1622323671374425458 ) ) ;
#121 = MECHANICAL_CONTEXT ( 'NONE', #162, 'mechanical' ) ;
#122 = DATE_AND_TIME ( #110, #28 ) ;
#123 = DIRECTION ( 'NONE',  ( 0.0000000000000000000, 1.000000000000000000, 0.0000000000000000000 ) ) ;
#124 = EDGE_CURVE ( 'NONE', #177, #177, #131, .T. ) ;
#125 = ORIENTED_EDGE ( 'NONE', *, *, #40, .T. ) ;
#126 = CIRCLE ( 'NONE', #41, 0.2699999999999995182 ) ;
#127 = DATE_AND_TIME ( #146, #37 ) ;
#128 = EDGE_LOOP ( 'NONE', ( #196 ) ) ;
#129 = ORIENTED_EDGE ( 'NONE', *, *, #40, .F. ) ;
#130 = CARTESIAN_POINT ( 'NONE',  ( 5.664312824167286139E-16, -1.986773491329672400E-17, 0.1622323671374425180 ) ) ;
#131 = CIRCLE ( 'NONE', #118, 0.3999999999999989675 ) ;
#132 = CARTESIAN_POINT ( 'NONE',  ( 1.043952920314096936E-13, -3.661693929450586610E-15, 29.90000000000000213 ) ) ;
#133 = DIRECTION ( 'NONE',  ( -3.491481338843133355E-15, 1.224646799147353207E-16, -1.000000000000000000 ) ) ;
#134 = APPROVAL ( #88, 'UNSPECIFIED' ) ;
#135 =( GEOMETRIC_REPRESENTATION_CONTEXT ( 3 ) GLOBAL_UNCERTAINTY_ASSIGNED_CONTEXT ( ( #53 ) ) GLOBAL_UNIT_ASSIGNED_CONTEXT ( ( #174, #192, #109 ) ) REPRESENTATION_CONTEXT ( 'NONE', 'WORKASPACE' ) );
#136 = PERSON ( 'UNSPECIFIED', 'UNSPECIFIED', 'UNSPECIFIED', ('UNSPECIFIED'), ('UNSPECIFIED'), ('UNSPECIFIED') ) ;
#137 = MANIFOLD_SOLID_BREP ( 'Corps-Déplacer/Copier1[2]', #1 ) ;
#138 = AXIS2_PLACEMENT_3D ( 'NONE', #91, #44, #183 ) ;
#139 = PERSON_AND_ORGANIZATION ( #136, #206 ) ;
#140 = CALENDAR_DATE ( 2021, 8, 10 ) ;
#141 = DATE_TIME_ROLE ( 'classification_date' ) ;
#142 = CONICAL_SURFACE ( 'NONE', #138, 0.2699999999999990186, 1.029744258676649649 ) ;
#143 = PERSON_AND_ORGANIZATION ( #136, #206 ) ;
#144 = CARTESIAN_POINT ( 'NONE',  ( 1.047444401652940007E-13, -3.673940397442059178E-15, 30.00000000000000000 ) ) ;
#145 = CARTESIAN_POINT ( 'NONE',  ( 1.571166602479410010E-14, -5.510910596163088569E-16, 4.500000000000000000 ) ) ;
#146 = CALENDAR_DATE ( 2021, 8, 10 ) ;
#147 = DIRECTION ( 'NONE',  ( 0.0000000000000000000, 1.000000000000000000, 0.0000000000000000000 ) ) ;
#148 = PRODUCT_DEFINITION_FORMATION_WITH_SPECIFIED_SOURCE ( 'ANY', '', #218, .NOT_KNOWN. ) ;
#149 = FACE_OUTER_BOUND ( 'NONE', #33, .T. ) ;
#150 = DIRECTION ( 'NONE',  ( 0.0000000000000000000, -1.000000000000000000, 0.0000000000000000000 ) ) ;
#151 = CC_DESIGN_PERSON_AND_ORGANIZATION_ASSIGNMENT ( #106, #211, ( #148 ) ) ;
#152 = AXIS2_PLACEMENT_3D ( 'NONE', #70, #133, #39 ) ;
#153 = ADVANCED_FACE ( 'NONE', ( #45, #197 ), #185, .T. ) ;
#154 = FACE_OUTER_BOUND ( 'NONE', #47, .T. ) ;
#155 = CARTESIAN_POINT ( 'NONE',  ( 1.571166602479410010E-14, 0.2699999999999989631, 4.500000000000000000 ) ) ;
#156 = AXIS2_PLACEMENT_3D ( 'NONE', #95, #20, #221 ) ;
#157 = APPROVAL_DATE_TIME ( #100, #94 ) ;
#158 = CC_DESIGN_APPROVAL ( #134, ( #219 ) ) ;
#159 = ADVANCED_BREP_SHAPE_REPRESENTATION ( '55306', ( #62, #137, #26 ), #135 ) ;
#160 = APPLICATION_PROTOCOL_DEFINITION ( 'international standard', 'config_control_design', 1994, #162 ) ;
#161 = ADVANCED_FACE ( 'NONE', ( #80, #149 ), #188, .T. ) ;
#162 = APPLICATION_CONTEXT ( 'configuration controlled 3d designs of mechanical parts and assemblies' ) ;
#163 = APPROVAL_ROLE ( '' ) ;
#164 = DATE_AND_TIME ( #140, #97 ) ;
#165 = DIRECTION ( 'NONE',  ( 0.0000000000000000000, 1.000000000000000000, 0.0000000000000000000 ) ) ;
#166 = DIRECTION ( 'NONE',  ( -3.491481338843133355E-15, 1.224646799147353207E-16, -1.000000000000000000 ) ) ;
#167 = COORDINATED_UNIVERSAL_TIME_OFFSET ( 1, 0, .AHEAD. ) ;
#168 = ORIENTED_EDGE ( 'NONE', *, *, #87, .F. ) ;
#169 = DIRECTION ( 'NONE',  ( -3.491481338843133355E-15, 1.224646799147353207E-16, -1.000000000000000000 ) ) ;
#170 = APPROVAL_PERSON_ORGANIZATION ( #182, #18, #90 ) ;
#171 = CC_DESIGN_PERSON_AND_ORGANIZATION_ASSIGNMENT ( #215, #56, ( #219 ) ) ;
#172 = DIRECTION ( 'NONE',  ( 0.0000000000000000000, 1.000000000000000000, 0.0000000000000000000 ) ) ;
#173 = LOCAL_TIME ( 7, 14, 22.00000000000000000, #178 ) ;
#174 =( LENGTH_UNIT ( ) NAMED_UNIT ( * ) SI_UNIT ( .MILLI., .METRE. ) );
#175 = DIRECTION ( 'NONE',  ( 3.491481338843133355E-15, -1.224646799147353207E-16, 1.000000000000000000 ) ) ;
#176 = PERSON_AND_ORGANIZATION_ROLE ( 'creator' ) ;
#177 = VERTEX_POINT ( 'NONE', #7 ) ;
#178 = COORDINATED_UNIVERSAL_TIME_OFFSET ( 1, 0, .AHEAD. ) ;
#179 = EDGE_LOOP ( 'NONE', ( #129 ) ) ;
#180 = ADVANCED_FACE ( 'NONE', ( #184, #99 ), #66, .T. ) ;
#181 = CIRCLE ( 'NONE', #112, 0.2699999999999990186 ) ;
#182 = PERSON_AND_ORGANIZATION ( #136, #206 ) ;
#183 = DIRECTION ( 'NONE',  ( -3.566536934050449675E-31, -1.000000000000000000, -1.003890900449544776E-16 ) ) ;
#184 = FACE_OUTER_BOUND ( 'NONE', #217, .T. ) ;
#185 = CYLINDRICAL_SURFACE ( 'NONE', #202, 0.4999999999999980571 ) ;
#186 = CARTESIAN_POINT ( 'NONE',  ( 1.870865474734961426E-14, -6.562112733584345275E-16, 5.358371685740854318 ) ) ;
#187 = LOCAL_TIME ( 7, 14, 22.00000000000000000, #85 ) ;
#188 = CONICAL_SURFACE ( 'NONE', #65, 0.4999999999999970024, 0.2617993877991428575 ) ;
#189 = CARTESIAN_POINT ( 'NONE',  ( 1.571166602479410010E-14, 2.024675706593496207E-33, 4.500000000000000000 ) ) ;
#190 = PERSON_AND_ORGANIZATION ( #136, #206 ) ;
#191 = EDGE_CURVE ( 'NONE', #71, #71, #108, .T. ) ;
#192 =( NAMED_UNIT ( * ) PLANE_ANGLE_UNIT ( ) SI_UNIT ( $, .RADIAN. ) );
#193 = SECURITY_CLASSIFICATION ( '', '', #107 ) ;
#194 = CALENDAR_DATE ( 2021, 8, 10 ) ;
#195 = DIRECTION ( 'NONE',  ( -3.491481338843133355E-15, 1.224646799147353207E-16, -1.000000000000000000 ) ) ;
#196 = ORIENTED_EDGE ( 'NONE', *, *, #25, .T. ) ;
#197 = FACE_OUTER_BOUND ( 'NONE', #199, .T. ) ;
#198 = ADVANCED_FACE ( 'NONE', ( #203 ), #103, .T. ) ;
#199 = EDGE_LOOP ( 'NONE', ( #222 ) ) ;
#200 = DIRECTION ( 'NONE',  ( -3.491481338843133355E-15, 1.224646799147353207E-16, -1.000000000000000000 ) ) ;
#201 = AXIS2_PLACEMENT_3D ( 'NONE', #16, #58, #123 ) ;
#202 = AXIS2_PLACEMENT_3D ( 'NONE', #96, #169, #21 ) ;
#203 = FACE_OUTER_BOUND ( 'NONE', #179, .T. ) ;
#204 = CARTESIAN_POINT ( 'NONE',  ( 1.870865474734961426E-14, 0.4999999999999963363, 5.358371685740854318 ) ) ;
#205 = VERTEX_POINT ( 'NONE', #155 ) ;
#206 = ORGANIZATION ( 'UNSPECIFIED', 'UNSPECIFIED', '' ) ;
#207 = ADVANCED_FACE ( 'NONE', ( #154 ), #68, .F. ) ;
#208 = APPLICATION_PROTOCOL_DEFINITION ( 'international standard', 'config_control_design', 1994, #209 ) ;
#209 = APPLICATION_CONTEXT ( 'configuration controlled 3d designs of mechanical parts and assemblies' ) ;
#210 = PERSON_AND_ORGANIZATION_ROLE ( 'classification_officer' ) ;
#211 = PERSON_AND_ORGANIZATION_ROLE ( 'design_supplier' ) ;
#212 = PERSON_AND_ORGANIZATION ( #136, #206 ) ;
#213 = APPROVAL_STATUS ( 'not_yet_approved' ) ;
#214 = CC_DESIGN_SECURITY_CLASSIFICATION ( #193, ( #148 ) ) ;
#215 = PERSON_AND_ORGANIZATION ( #136, #206 ) ;
#216 = FACE_OUTER_BOUND ( 'NONE', #77, .T. ) ;
#217 = EDGE_LOOP ( 'NONE', ( #168 ) ) ;
#218 = PRODUCT ( '55306', '55306', '', ( #121 ) ) ;
#219 = PRODUCT_DEFINITION ( 'UNKNOWN', '', #148, #12 ) ;
#220 = ORIENTED_EDGE ( 'NONE', *, *, #52, .F. ) ;
#221 = DIRECTION ( 'NONE',  ( 4.275831445896958607E-31, 1.000000000000000000, 1.224646799147353207E-16 ) ) ;
#222 = ORIENTED_EDGE ( 'NONE', *, *, #191, .T. ) ;
#223 = ORIENTED_EDGE ( 'NONE', *, *, #124, .F. ) ;
ENDSEC;
END-ISO-10303-21;
