ISO-10303-21;
HEADER;
FILE_DESCRIPTION (( 'STEP AP203' ),
    '1' );
FILE_NAME ('55305.step',
    '2021-10-08T05:14:22',
    ( '' ),
    ( '' ),
    'SwSTEP 2.0',
    'SolidWorks 2019',
    '' );
FILE_SCHEMA (( 'CONFIG_CONTROL_DESIGN' ));
ENDSEC;

DATA;
#1 = AXIS2_PLACEMENT_3D ( 'NONE', #179, #117, #29 ) ;
#2 = CIRCLE ( 'NONE', #1, 0.2649999999999996803 ) ;
#3 = CC_DESIGN_SECURITY_CLASSIFICATION ( #198, ( #14 ) ) ;
#4 = DESIGN_CONTEXT ( 'detailed design', #115, 'design' ) ;
#5 = FACE_OUTER_BOUND ( 'NONE', #41, .T. ) ;
#6 = EDGE_CURVE ( 'NONE', #12, #12, #22, .T. ) ;
#7 = CYLINDRICAL_SURFACE ( 'NONE', #70, 0.2649999999999993472 ) ;
#8 = FACE_OUTER_BOUND ( 'NONE', #178, .T. ) ;
#9 = EDGE_LOOP ( 'NONE', ( #213 ) ) ;
#10 = CARTESIAN_POINT ( 'NONE',  ( 0.0000000000000000000, 0.0000000000000000000, 0.0000000000000000000 ) ) ;
#11 = DIRECTION ( 'NONE',  ( -4.275831445896958607E-31, -1.000000000000000000, -1.224646799147353207E-16 ) ) ;
#12 = VERTEX_POINT ( 'NONE', #135 ) ;
#13 = AXIS2_PLACEMENT_3D ( 'NONE', #118, #221, #48 ) ;
#14 = PRODUCT_DEFINITION_FORMATION_WITH_SPECIFIED_SOURCE ( 'ANY', '', #152, .NOT_KNOWN. ) ;
#15 = PERSON_AND_ORGANIZATION_ROLE ( 'design_supplier' ) ;
#16 = COORDINATED_UNIVERSAL_TIME_OFFSET ( 1, 0, .AHEAD. ) ;
#17 = APPROVAL_ROLE ( '' ) ;
#18 = UNCERTAINTY_MEASURE_WITH_UNIT (LENGTH_MEASURE( 1.000000000000000082E-05 ), #120, 'distance_accuracy_value', 'NONE');
#19 = PERSON_AND_ORGANIZATION ( #76, #220 ) ;
#20 = DATE_AND_TIME ( #139, #49 ) ;
#21 = APPROVAL ( #172, 'UNSPECIFIED' ) ;
#22 = CIRCLE ( 'NONE', #77, 0.3999999999999989675 ) ;
#23 = CIRCLE ( 'NONE', #47, 0.4999999999999970024 ) ;
#24 = CC_DESIGN_PERSON_AND_ORGANIZATION_ASSIGNMENT ( #218, #15, ( #14 ) ) ;
#25 = DIRECTION ( 'NONE',  ( 4.275831445896958607E-31, 1.000000000000000000, 1.224646799147353207E-16 ) ) ;
#26 = FACE_OUTER_BOUND ( 'NONE', #72, .T. ) ;
#27 = DIRECTION ( 'NONE',  ( 0.0000000000000000000, 1.000000000000000000, 0.0000000000000000000 ) ) ;
#28 = ORIENTED_EDGE ( 'NONE', *, *, #184, .F. ) ;
#29 = DIRECTION ( 'NONE',  ( 0.0000000000000000000, 1.000000000000000000, 0.0000000000000000000 ) ) ;
#30 = EDGE_LOOP ( 'NONE', ( #215 ) ) ;
#31 = CARTESIAN_POINT ( 'NONE',  ( 1.047444401652940007E-13, 2.999519565323652267E-33, 30.00000000000000000 ) ) ;
#32 = ORIENTED_EDGE ( 'NONE', *, *, #206, .T. ) ;
#33 = CALENDAR_DATE ( 2021, 8, 10 ) ;
#34 = MECHANICAL_CONTEXT ( 'NONE', #85, 'mechanical' ) ;
#35 = CC_DESIGN_DATE_AND_TIME_ASSIGNMENT ( #185, #140, ( #130 ) ) ;
#36 = COORDINATED_UNIVERSAL_TIME_OFFSET ( 1, 0, .AHEAD. ) ;
#37 = CARTESIAN_POINT ( 'NONE',  ( 1.396592535537253342E-14, 0.2649999999999991807, 4.000000000000000000 ) ) ;
#38 = PLANE ( 'NONE',  #133 ) ;
#39 = ORIENTED_EDGE ( 'NONE', *, *, #6, .F. ) ;
#40 = DIRECTION ( 'NONE',  ( -3.491481338843133355E-15, 1.224646799147353207E-16, -1.000000000000000000 ) ) ;
#41 = EDGE_LOOP ( 'NONE', ( #74 ) ) ;
#42 = FACE_OUTER_BOUND ( 'NONE', #91, .T. ) ;
#43 = FACE_OUTER_BOUND ( 'NONE', #109, .T. ) ;
#44 = APPROVAL ( #80, 'UNSPECIFIED' ) ;
#45 = AXIS2_PLACEMENT_3D ( 'NONE', #95, #183, #11 ) ;
#46 = APPLICATION_PROTOCOL_DEFINITION ( 'international standard', 'config_control_design', 1994, #115 ) ;
#47 = AXIS2_PLACEMENT_3D ( 'NONE', #52, #86, #27 ) ;
#48 = DIRECTION ( 'NONE',  ( 1.000000000000000000, 0.0000000000000000000, 0.0000000000000000000 ) ) ;
#49 = LOCAL_TIME ( 7, 14, 21.00000000000000000, #16 ) ;
#50 = CARTESIAN_POINT ( 'NONE',  ( 5.559418142238261335E-16, -1.949981389638381742E-17, 0.1592280640423046623 ) ) ;
#51 = APPROVAL ( #137, 'UNSPECIFIED' ) ;
#52 = CARTESIAN_POINT ( 'NONE',  ( 1.702806600667925901E-14, -5.972641554389391756E-16, 4.877031939778699865 ) ) ;
#53 = ORIENTED_EDGE ( 'NONE', *, *, #101, .F. ) ;
#54 = FACE_OUTER_BOUND ( 'NONE', #30, .T. ) ;
#55 = EDGE_LOOP ( 'NONE', ( #134 ) ) ;
#56 = VERTEX_POINT ( 'NONE', #89 ) ;
#57 = AXIS2_PLACEMENT_3D ( 'NONE', #50, #40, #146 ) ;
#58 = LOCAL_TIME ( 7, 14, 21.00000000000000000, #36 ) ;
#59 = DIRECTION ( 'NONE',  ( 0.0000000000000000000, 1.000000000000000000, 0.0000000000000000000 ) ) ;
#60 = PERSON_AND_ORGANIZATION ( #76, #220 ) ;
#61 = PERSON_AND_ORGANIZATION ( #76, #220 ) ;
#62 = CALENDAR_DATE ( 2021, 8, 10 ) ;
#63 = CLOSED_SHELL ( 'NONE', ( #159, #136, #207, #124, #190 ) ) ;
#64 = MANIFOLD_SOLID_BREP ( 'Corps-Déplacer/Copier1[1]', #63 ) ;
#65 = MANIFOLD_SOLID_BREP ( 'Corps-Déplacer/Copier1[2]', #216 ) ;
#66 = CIRCLE ( 'NONE', #81, 0.2649999999999996803 ) ;
#67 = DATE_AND_TIME ( #202, #99 ) ;
#68 = DIRECTION ( 'NONE',  ( -3.491481338843133355E-15, 1.224646799147353207E-16, -1.000000000000000000 ) ) ;
#69 = CARTESIAN_POINT ( 'NONE',  ( 1.047444401652940007E-13, -3.673940397442059178E-15, 30.00000000000000000 ) ) ;
#70 = AXIS2_PLACEMENT_3D ( 'NONE', #176, #196, #107 ) ;
#71 = VERTEX_POINT ( 'NONE', #164 ) ;
#72 = EDGE_LOOP ( 'NONE', ( #149 ) ) ;
#73 = DIRECTION ( 'NONE',  ( -3.633830083749515267E-31, -1.000000000000000000, -1.022832238193875952E-16 ) ) ;
#74 = ORIENTED_EDGE ( 'NONE', *, *, #206, .F. ) ;
#75 = FACE_OUTER_BOUND ( 'NONE', #9, .T. ) ;
#76 = PERSON ( 'UNSPECIFIED', 'UNSPECIFIED', 'UNSPECIFIED', ('UNSPECIFIED'), ('UNSPECIFIED'), ('UNSPECIFIED') ) ;
#77 = AXIS2_PLACEMENT_3D ( 'NONE', #147, #93, #167 ) ;
#78 = PERSON_AND_ORGANIZATION ( #76, #220 ) ;
#79 =( NAMED_UNIT ( * ) SI_UNIT ( $, .STERADIAN. ) SOLID_ANGLE_UNIT ( ) );
#80 = APPROVAL_STATUS ( 'not_yet_approved' ) ;
#81 = AXIS2_PLACEMENT_3D ( 'NONE', #126, #114, #148 ) ;
#82 = DATE_AND_TIME ( #100, #58 ) ;
#83 = ADVANCED_FACE ( 'NONE', ( #112 ), #180, .T. ) ;
#84 = AXIS2_PLACEMENT_3D ( 'NONE', #211, #166, #73 ) ;
#85 = APPLICATION_CONTEXT ( 'configuration controlled 3d designs of mechanical parts and assemblies' ) ;
#86 = DIRECTION ( 'NONE',  ( -3.491481338843133355E-15, 1.224646799147353207E-16, -1.000000000000000000 ) ) ;
#87 = CC_DESIGN_PERSON_AND_ORGANIZATION_ASSIGNMENT ( #19, #121, ( #130 ) ) ;
#88 = DIRECTION ( 'NONE',  ( -3.491481338843133355E-15, 1.224646799147353207E-16, -1.000000000000000000 ) ) ;
#89 = CARTESIAN_POINT ( 'NONE',  ( 1.043952920314096936E-13, 0.4999999999999954481, 29.90000000000000213 ) ) ;
#90 = CIRCLE ( 'NONE', #102, 0.4999999999999991673 ) ;
#91 = EDGE_LOOP ( 'NONE', ( #39 ) ) ;
#92 = CARTESIAN_POINT ( 'NONE',  ( 1.396592535537253342E-14, 1.987181712026951204E-33, 4.000000000000000000 ) ) ;
#93 = DIRECTION ( 'NONE',  ( -3.491481338843133355E-15, 1.224646799147353207E-16, -1.000000000000000000 ) ) ;
#94 = DIRECTION ( 'NONE',  ( 4.275831445896958607E-31, 1.000000000000000000, 1.224646799147353207E-16 ) ) ;
#95 = CARTESIAN_POINT ( 'NONE',  ( 1.396592535537253342E-14, 1.987181712026951204E-33, 4.000000000000000000 ) ) ;
#96 = PERSON_AND_ORGANIZATION_ROLE ( 'design_owner' ) ;
#97 = PERSON_AND_ORGANIZATION ( #76, #220 ) ;
#98 = APPLICATION_PROTOCOL_DEFINITION ( 'international standard', 'config_control_design', 1994, #85 ) ;
#99 = LOCAL_TIME ( 7, 14, 21.00000000000000000, #155 ) ;
#100 = CALENDAR_DATE ( 2021, 8, 10 ) ;
#101 = EDGE_CURVE ( 'NONE', #214, #214, #141, .T. ) ;
#102 = AXIS2_PLACEMENT_3D ( 'NONE', #145, #193, #59 ) ;
#103 = SHAPE_DEFINITION_REPRESENTATION ( #113, #181 ) ;
#104 = APPROVAL_DATE_TIME ( #67, #51 ) ;
#105 =( GEOMETRIC_REPRESENTATION_CONTEXT ( 3 ) GLOBAL_UNCERTAINTY_ASSIGNED_CONTEXT ( ( #18 ) ) GLOBAL_UNIT_ASSIGNED_CONTEXT ( ( #120, #223, #79 ) ) REPRESENTATION_CONTEXT ( 'NONE', 'WORKASPACE' ) );
#106 = ADVANCED_FACE ( 'NONE', ( #194, #8 ), #7, .T. ) ;
#107 = DIRECTION ( 'NONE',  ( 4.275831445896958607E-31, 1.000000000000000000, 1.224646799147352961E-16 ) ) ;
#108 = VERTEX_POINT ( 'NONE', #212 ) ;
#109 = EDGE_LOOP ( 'NONE', ( #32 ) ) ;
#110 = FACE_BOUND ( 'NONE', #165, .T. ) ;
#111 = CC_DESIGN_APPROVAL ( #51, ( #198 ) ) ;
#112 = FACE_OUTER_BOUND ( 'NONE', #128, .T. ) ;
#113 = PRODUCT_DEFINITION_SHAPE ( 'NONE', 'NONE',  #130 ) ;
#114 = DIRECTION ( 'NONE',  ( -3.491481338843133355E-15, 1.224646799147353207E-16, -1.000000000000000000 ) ) ;
#115 = APPLICATION_CONTEXT ( 'configuration controlled 3d designs of mechanical parts and assemblies' ) ;
#116 = EDGE_LOOP ( 'NONE', ( #53 ) ) ;
#117 = DIRECTION ( 'NONE',  ( -3.491481338843133355E-15, 1.224646799147353207E-16, -1.000000000000000000 ) ) ;
#118 = CARTESIAN_POINT ( 'NONE',  ( 0.0000000000000000000, 0.0000000000000000000, 0.0000000000000000000 ) ) ;
#119 = CC_DESIGN_PERSON_AND_ORGANIZATION_ASSIGNMENT ( #222, #187, ( #198 ) ) ;
#120 =( LENGTH_UNIT ( ) NAMED_UNIT ( * ) SI_UNIT ( .MILLI., .METRE. ) );
#121 = PERSON_AND_ORGANIZATION_ROLE ( 'creator' ) ;
#122 = AXIS2_PLACEMENT_3D ( 'NONE', #69, #162, #161 ) ;
#123 = APPROVAL_PERSON_ORGANIZATION ( #97, #44, #171 ) ;
#124 = ADVANCED_FACE ( 'NONE', ( #54, #199 ), #208, .T. ) ;
#125 = APPROVAL_PERSON_ORGANIZATION ( #186, #21, #174 ) ;
#126 = CARTESIAN_POINT ( 'NONE',  ( 1.396592535537253342E-14, -4.898587196589412829E-16, 4.000000000000000000 ) ) ;
#127 = VERTEX_POINT ( 'NONE', #37 ) ;
#128 = EDGE_LOOP ( 'NONE', ( #28 ) ) ;
#129 = DIRECTION ( 'NONE',  ( 3.491481338843133355E-15, -1.224646799147353207E-16, 1.000000000000000000 ) ) ;
#130 = PRODUCT_DEFINITION ( 'UNKNOWN', '', #14, #4 ) ;
#131 = ORIENTED_EDGE ( 'NONE', *, *, #143, .T. ) ;
#132 = DIRECTION ( 'NONE',  ( -4.275831445896958607E-31, -1.000000000000000000, -1.224646799147353207E-16 ) ) ;
#133 = AXIS2_PLACEMENT_3D ( 'NONE', #31, #88, #25 ) ;
#134 = ORIENTED_EDGE ( 'NONE', *, *, #6, .T. ) ;
#135 = CARTESIAN_POINT ( 'NONE',  ( 1.047444401652940007E-13, 0.3999999999999953038, 30.00000000000000000 ) ) ;
#136 = ADVANCED_FACE ( 'NONE', ( #110, #43 ), #188, .T. ) ;
#137 = APPROVAL_STATUS ( 'not_yet_approved' ) ;
#138 = COORDINATED_UNIVERSAL_TIME_OFFSET ( 1, 0, .AHEAD. ) ;
#139 = CALENDAR_DATE ( 2021, 8, 10 ) ;
#140 = DATE_TIME_ROLE ( 'creation_date' ) ;
#141 = CIRCLE ( 'NONE', #57, 0.2649999999999990141 ) ;
#142 = AXIS2_PLACEMENT_3D ( 'NONE', #92, #150, #132 ) ;
#143 = EDGE_CURVE ( 'NONE', #127, #127, #2, .T. ) ;
#144 = PLANE ( 'NONE',  #142 ) ;
#145 = CARTESIAN_POINT ( 'NONE',  ( 1.043952920314096936E-13, -3.661693929450586610E-15, 29.90000000000000213 ) ) ;
#146 = DIRECTION ( 'NONE',  ( 3.633830083749515267E-31, 1.000000000000000000, 1.022832238193875952E-16 ) ) ;
#147 = CARTESIAN_POINT ( 'NONE',  ( 1.047444401652940007E-13, -3.673940397442059178E-15, 30.00000000000000000 ) ) ;
#148 = DIRECTION ( 'NONE',  ( 0.0000000000000000000, 1.000000000000000000, 0.0000000000000000000 ) ) ;
#149 = ORIENTED_EDGE ( 'NONE', *, *, #101, .T. ) ;
#150 = DIRECTION ( 'NONE',  ( 3.491481338843133355E-15, -1.224646799147353207E-16, 1.000000000000000000 ) ) ;
#151 = CONICAL_SURFACE ( 'NONE', #84, 0.2649999999999990141, 1.029744258676649649 ) ;
#152 = PRODUCT ( '55305', '55305', '', ( #34 ) ) ;
#153 = DATE_TIME_ROLE ( 'classification_date' ) ;
#154 = APPROVAL_DATE_TIME ( #20, #44 ) ;
#155 = COORDINATED_UNIVERSAL_TIME_OFFSET ( 1, 0, .AHEAD. ) ;
#156 = AXIS2_PLACEMENT_3D ( 'NONE', #10, #68, #94 ) ;
#157 = LOCAL_TIME ( 7, 14, 21.00000000000000000, #219 ) ;
#158 = PERSON_AND_ORGANIZATION_ROLE ( 'creator' ) ;
#159 = ADVANCED_FACE ( 'NONE', ( #182 ), #144, .F. ) ;
#160 = CC_DESIGN_APPROVAL ( #44, ( #130 ) ) ;
#161 = DIRECTION ( 'NONE',  ( 0.0000000000000000000, 1.000000000000000000, 0.0000000000000000000 ) ) ;
#162 = DIRECTION ( 'NONE',  ( -3.491481338843133355E-15, 1.224646799147353207E-16, -1.000000000000000000 ) ) ;
#163 = ADVANCED_FACE ( 'NONE', ( #26 ), #151, .T. ) ;
#164 = CARTESIAN_POINT ( 'NONE',  ( 1.702806600667925901E-14, 0.4999999999999963363, 4.877031939778699865 ) ) ;
#165 = EDGE_LOOP ( 'NONE', ( #197 ) ) ;
#166 = DIRECTION ( 'NONE',  ( 3.491481338843133355E-15, -1.224646799147353207E-16, 1.000000000000000000 ) ) ;
#167 = DIRECTION ( 'NONE',  ( 0.0000000000000000000, 1.000000000000000000, 0.0000000000000000000 ) ) ;
#168 = CYLINDRICAL_SURFACE ( 'NONE', #156, 0.4999999999999980571 ) ;
#169 = APPROVAL_DATE_TIME ( #204, #21 ) ;
#170 = CC_DESIGN_PERSON_AND_ORGANIZATION_ASSIGNMENT ( #78, #158, ( #14 ) ) ;
#171 = APPROVAL_ROLE ( '' ) ;
#172 = APPROVAL_STATUS ( 'not_yet_approved' ) ;
#173 = CC_DESIGN_PERSON_AND_ORGANIZATION_ASSIGNMENT ( #61, #96, ( #152 ) ) ;
#174 = APPROVAL_ROLE ( '' ) ;
#175 = PRODUCT_RELATED_PRODUCT_CATEGORY ( 'detail', '', ( #152 ) ) ;
#176 = CARTESIAN_POINT ( 'NONE',  ( 0.0000000000000000000, 0.0000000000000000000, 0.0000000000000000000 ) ) ;
#177 = CARTESIAN_POINT ( 'NONE',  ( 1.702806600667925901E-14, -5.972641554389391756E-16, 4.877031939778699865 ) ) ;
#178 = EDGE_LOOP ( 'NONE', ( #195 ) ) ;
#179 = CARTESIAN_POINT ( 'NONE',  ( 1.396592535537253342E-14, -4.898587196589412829E-16, 4.000000000000000000 ) ) ;
#180 = PLANE ( 'NONE',  #45 ) ;
#181 = ADVANCED_BREP_SHAPE_REPRESENTATION ( '55305', ( #64, #65, #13 ), #105 ) ;
#182 = FACE_OUTER_BOUND ( 'NONE', #200, .T. ) ;
#183 = DIRECTION ( 'NONE',  ( 3.491481338843133355E-15, -1.224646799147353207E-16, 1.000000000000000000 ) ) ;
#184 = EDGE_CURVE ( 'NONE', #108, #108, #66, .T. ) ;
#185 = DATE_AND_TIME ( #62, #157 ) ;
#186 = PERSON_AND_ORGANIZATION ( #76, #220 ) ;
#187 = PERSON_AND_ORGANIZATION_ROLE ( 'classification_officer' ) ;
#188 = CONICAL_SURFACE ( 'NONE', #203, 0.4999999999999970024, 0.2617993877991427465 ) ;
#189 = CC_DESIGN_DATE_AND_TIME_ASSIGNMENT ( #82, #153, ( #198 ) ) ;
#190 = ADVANCED_FACE ( 'NONE', ( #42 ), #38, .F. ) ;
#191 = LOCAL_TIME ( 7, 14, 21.00000000000000000, #138 ) ;
#192 = EDGE_CURVE ( 'NONE', #56, #56, #90, .T. ) ;
#193 = DIRECTION ( 'NONE',  ( -3.491481338843133355E-15, 1.224646799147353207E-16, -1.000000000000000000 ) ) ;
#194 = FACE_OUTER_BOUND ( 'NONE', #116, .T. ) ;
#195 = ORIENTED_EDGE ( 'NONE', *, *, #184, .T. ) ;
#196 = DIRECTION ( 'NONE',  ( -3.491481338843133355E-15, 1.224646799147353207E-16, -1.000000000000000000 ) ) ;
#197 = ORIENTED_EDGE ( 'NONE', *, *, #143, .F. ) ;
#198 = SECURITY_CLASSIFICATION ( '', '', #205 ) ;
#199 = FACE_BOUND ( 'NONE', #55, .T. ) ;
#200 = EDGE_LOOP ( 'NONE', ( #131 ) ) ;
#201 = DIRECTION ( 'NONE',  ( 0.0000000000000000000, -1.000000000000000000, 0.0000000000000000000 ) ) ;
#202 = CALENDAR_DATE ( 2021, 8, 10 ) ;
#203 = AXIS2_PLACEMENT_3D ( 'NONE', #177, #129, #201 ) ;
#204 = DATE_AND_TIME ( #33, #191 ) ;
#205 = SECURITY_CLASSIFICATION_LEVEL ( 'unclassified' ) ;
#206 = EDGE_CURVE ( 'NONE', #71, #71, #23, .T. ) ;
#207 = ADVANCED_FACE ( 'NONE', ( #5, #75 ), #168, .T. ) ;
#208 = CONICAL_SURFACE ( 'NONE', #122, 0.3999999999999989675, 0.7853981633974694843 ) ;
#209 = APPROVAL_PERSON_ORGANIZATION ( #60, #51, #17 ) ;
#210 = CARTESIAN_POINT ( 'NONE',  ( 5.559418142238262321E-16, 0.2649999999999990141, 0.1592280640423046900 ) ) ;
#211 = CARTESIAN_POINT ( 'NONE',  ( 5.559418142238261335E-16, -1.949981389638381742E-17, 0.1592280640423046623 ) ) ;
#212 = CARTESIAN_POINT ( 'NONE',  ( 1.396592535537253342E-14, 0.2649999999999991807, 4.000000000000000000 ) ) ;
#213 = ORIENTED_EDGE ( 'NONE', *, *, #192, .T. ) ;
#214 = VERTEX_POINT ( 'NONE', #210 ) ;
#215 = ORIENTED_EDGE ( 'NONE', *, *, #192, .F. ) ;
#216 = CLOSED_SHELL ( 'NONE', ( #163, #106, #83 ) ) ;
#217 = CC_DESIGN_APPROVAL ( #21, ( #14 ) ) ;
#218 = PERSON_AND_ORGANIZATION ( #76, #220 ) ;
#219 = COORDINATED_UNIVERSAL_TIME_OFFSET ( 1, 0, .AHEAD. ) ;
#220 = ORGANIZATION ( 'UNSPECIFIED', 'UNSPECIFIED', '' ) ;
#221 = DIRECTION ( 'NONE',  ( 0.0000000000000000000, 0.0000000000000000000, 1.000000000000000000 ) ) ;
#222 = PERSON_AND_ORGANIZATION ( #76, #220 ) ;
#223 =( NAMED_UNIT ( * ) PLANE_ANGLE_UNIT ( ) SI_UNIT ( $, .RADIAN. ) );
ENDSEC;
END-ISO-10303-21;
