ISO-10303-21;
HEADER;
FILE_DESCRIPTION (( 'STEP AP203' ),
    '1' );
FILE_NAME ('55304.step',
    '2021-10-08T05:14:21',
    ( '' ),
    ( '' ),
    'SwSTEP 2.0',
    'SolidWorks 2019',
    '' );
FILE_SCHEMA (( 'CONFIG_CONTROL_DESIGN' ));
ENDSEC;

DATA;
#1 = PRODUCT_DEFINITION ( 'UNKNOWN', '', #183, #209 ) ;
#2 = LOCAL_TIME ( 7, 14, 21.00000000000000000, #196 ) ;
#3 = CC_DESIGN_PERSON_AND_ORGANIZATION_ASSIGNMENT ( #178, #131, ( #27 ) ) ;
#4 = ORGANIZATION ( 'UNSPECIFIED', 'UNSPECIFIED', '' ) ;
#5 = CC_DESIGN_DATE_AND_TIME_ASSIGNMENT ( #146, #214, ( #1 ) ) ;
#6 = ORIENTED_EDGE ( 'NONE', *, *, #127, .T. ) ;
#7 = LOCAL_TIME ( 7, 14, 21.00000000000000000, #95 ) ;
#8 = PERSON_AND_ORGANIZATION ( #208, #4 ) ;
#9 = SECURITY_CLASSIFICATION_LEVEL ( 'unclassified' ) ;
#10 = CARTESIAN_POINT ( 'NONE',  ( 1.709321793543046728E-14, -5.995493774768114963E-16, 4.895692193816544524 ) ) ;
#11 = PLANE ( 'NONE',  #109 ) ;
#12 = CONICAL_SURFACE ( 'NONE', #170, 0.4999999999999970024, 0.2617993877991430240 ) ;
#13 = ORIENTED_EDGE ( 'NONE', *, *, #115, .F. ) ;
#14 = APPROVAL ( #113, 'UNSPECIFIED' ) ;
#15 = PRODUCT ( '55304', '55304', '', ( #44 ) ) ;
#16 = CC_DESIGN_PERSON_AND_ORGANIZATION_ASSIGNMENT ( #200, #45, ( #183 ) ) ;
#17 = DIRECTION ( 'NONE',  ( -3.491481338843133355E-15, 1.224646799147353207E-16, -1.000000000000000000 ) ) ;
#18 = AXIS2_PLACEMENT_3D ( 'NONE', #90, #210, #145 ) ;
#19 = DIRECTION ( 'NONE',  ( -3.491481338843133355E-15, 1.224646799147353207E-16, -1.000000000000000000 ) ) ;
#20 = CONICAL_SURFACE ( 'NONE', #151, 0.3999999999999989675, 0.7853981633974694843 ) ;
#21 = DIRECTION ( 'NONE',  ( 3.703711431513929149E-31, 1.000000000000000000, 1.042502088928373602E-16 ) ) ;
#22 = COORDINATED_UNIVERSAL_TIME_OFFSET ( 1, 0, .AHEAD. ) ;
#23 = CONICAL_SURFACE ( 'NONE', #221, 0.2599999999999990097, 1.029744258676649649 ) ;
#24 = PERSON_AND_ORGANIZATION ( #208, #4 ) ;
#25 = ORIENTED_EDGE ( 'NONE', *, *, #96, .F. ) ;
#26 = CARTESIAN_POINT ( 'NONE',  ( 1.396592535537253342E-14, 1.949687717460404490E-33, 4.000000000000000000 ) ) ;
#27 = SECURITY_CLASSIFICATION ( '', '', #9 ) ;
#28 = APPROVAL_DATE_TIME ( #103, #108 ) ;
#29 = EDGE_LOOP ( 'NONE', ( #86 ) ) ;
#30 = DIRECTION ( 'NONE',  ( 0.0000000000000000000, 0.0000000000000000000, 1.000000000000000000 ) ) ;
#31 = VERTEX_POINT ( 'NONE', #217 ) ;
#32 = PRODUCT_DEFINITION_SHAPE ( 'NONE', 'NONE',  #1 ) ;
#33 = AXIS2_PLACEMENT_3D ( 'NONE', #10, #67, #201 ) ;
#34 = CARTESIAN_POINT ( 'NONE',  ( 1.047444401652940007E-13, -3.673940397442059178E-15, 30.00000000000000000 ) ) ;
#35 = DIRECTION ( 'NONE',  ( -3.491481338843133355E-15, 1.224646799147353207E-16, -1.000000000000000000 ) ) ;
#36 = APPROVAL ( #163, 'UNSPECIFIED' ) ;
#37 = UNCERTAINTY_MEASURE_WITH_UNIT (LENGTH_MEASURE( 1.000000000000000082E-05 ), #46, 'distance_accuracy_value', 'NONE');
#38 = CC_DESIGN_APPROVAL ( #36, ( #183 ) ) ;
#39 = AXIS2_PLACEMENT_3D ( 'NONE', #185, #106, #85 ) ;
#40 = APPROVAL_ROLE ( '' ) ;
#41 = CARTESIAN_POINT ( 'NONE',  ( 5.454523460309236532E-16, 0.2599999999999990097, 0.1562237609471668065 ) ) ;
#42 = EDGE_LOOP ( 'NONE', ( #132 ) ) ;
#43 = FACE_BOUND ( 'NONE', #83, .T. ) ;
#44 = MECHANICAL_CONTEXT ( 'NONE', #77, 'mechanical' ) ;
#45 = PERSON_AND_ORGANIZATION_ROLE ( 'design_supplier' ) ;
#46 =( LENGTH_UNIT ( ) NAMED_UNIT ( * ) SI_UNIT ( .MILLI., .METRE. ) );
#47 = FACE_OUTER_BOUND ( 'NONE', #64, .T. ) ;
#48 = APPROVAL_PERSON_ORGANIZATION ( #24, #36, #40 ) ;
#49 = APPLICATION_PROTOCOL_DEFINITION ( 'international standard', 'config_control_design', 1994, #211 ) ;
#50 = PERSON_AND_ORGANIZATION ( #208, #4 ) ;
#51 = FACE_OUTER_BOUND ( 'NONE', #121, .T. ) ;
#52 = CC_DESIGN_PERSON_AND_ORGANIZATION_ASSIGNMENT ( #148, #98, ( #183 ) ) ;
#53 =( GEOMETRIC_REPRESENTATION_CONTEXT ( 3 ) GLOBAL_UNCERTAINTY_ASSIGNED_CONTEXT ( ( #37 ) ) GLOBAL_UNIT_ASSIGNED_CONTEXT ( ( #46, #182, #180 ) ) REPRESENTATION_CONTEXT ( 'NONE', 'WORKASPACE' ) );
#54 = FACE_BOUND ( 'NONE', #107, .T. ) ;
#55 = EDGE_CURVE ( 'NONE', #31, #31, #198, .T. ) ;
#56 = DIRECTION ( 'NONE',  ( -3.703711431513929149E-31, -1.000000000000000000, -1.042502088928373602E-16 ) ) ;
#57 = CC_DESIGN_DATE_AND_TIME_ASSIGNMENT ( #195, #84, ( #27 ) ) ;
#58 = CARTESIAN_POINT ( 'NONE',  ( 1.396592535537253342E-14, 1.949687717460404490E-33, 4.000000000000000000 ) ) ;
#59 = DIRECTION ( 'NONE',  ( -4.275831445896958607E-31, -1.000000000000000000, -1.224646799147353207E-16 ) ) ;
#60 = CC_DESIGN_APPROVAL ( #108, ( #1 ) ) ;
#61 = ADVANCED_FACE ( 'NONE', ( #74, #51 ), #169, .T. ) ;
#62 = CLOSED_SHELL ( 'NONE', ( #80, #193, #78, #159, #135 ) ) ;
#63 = APPROVAL_DATE_TIME ( #212, #36 ) ;
#64 = EDGE_LOOP ( 'NONE', ( #25 ) ) ;
#65 = DIRECTION ( 'NONE',  ( 4.275831445896958607E-31, 1.000000000000000000, 1.224646799147353207E-16 ) ) ;
#66 = APPROVAL_ROLE ( '' ) ;
#67 = DIRECTION ( 'NONE',  ( -3.491481338843133355E-15, 1.224646799147353207E-16, -1.000000000000000000 ) ) ;
#68 = VERTEX_POINT ( 'NONE', #100 ) ;
#69 = APPROVAL_DATE_TIME ( #152, #14 ) ;
#70 = DIRECTION ( 'NONE',  ( -3.491481338843133355E-15, 1.224646799147353207E-16, -1.000000000000000000 ) ) ;
#71 = ORIENTED_EDGE ( 'NONE', *, *, #55, .F. ) ;
#72 = CARTESIAN_POINT ( 'NONE',  ( 1.047444401652940007E-13, 0.3999999999999953038, 30.00000000000000000 ) ) ;
#73 = DIRECTION ( 'NONE',  ( 1.000000000000000000, 0.0000000000000000000, 0.0000000000000000000 ) ) ;
#74 = FACE_OUTER_BOUND ( 'NONE', #29, .T. ) ;
#75 = FACE_OUTER_BOUND ( 'NONE', #133, .T. ) ;
#76 = FACE_OUTER_BOUND ( 'NONE', #116, .T. ) ;
#77 = APPLICATION_CONTEXT ( 'configuration controlled 3d designs of mechanical parts and assemblies' ) ;
#78 = ADVANCED_FACE ( 'NONE', ( #47, #222 ), #166, .T. ) ;
#79 = ADVANCED_BREP_SHAPE_REPRESENTATION ( '55304', ( #99, #172, #92 ), #53 ) ;
#80 = ADVANCED_FACE ( 'NONE', ( #120 ), #11, .F. ) ;
#81 = DIRECTION ( 'NONE',  ( 0.0000000000000000000, 1.000000000000000000, 0.0000000000000000000 ) ) ;
#82 = LOCAL_TIME ( 7, 14, 21.00000000000000000, #93 ) ;
#83 = EDGE_LOOP ( 'NONE', ( #215 ) ) ;
#84 = DATE_TIME_ROLE ( 'classification_date' ) ;
#85 = DIRECTION ( 'NONE',  ( 0.0000000000000000000, 1.000000000000000000, 0.0000000000000000000 ) ) ;
#86 = ORIENTED_EDGE ( 'NONE', *, *, #179, .F. ) ;
#87 = EDGE_LOOP ( 'NONE', ( #223 ) ) ;
#88 = PRODUCT_RELATED_PRODUCT_CATEGORY ( 'detail', '', ( #15 ) ) ;
#89 = LOCAL_TIME ( 7, 14, 21.00000000000000000, #22 ) ;
#90 = CARTESIAN_POINT ( 'NONE',  ( 1.396592535537253658E-14, -4.898587196589413815E-16, 4.000000000000000888 ) ) ;
#91 = CIRCLE ( 'NONE', #18, 0.2599999999999996758 ) ;
#92 = AXIS2_PLACEMENT_3D ( 'NONE', #168, #30, #73 ) ;
#93 = COORDINATED_UNIVERSAL_TIME_OFFSET ( 1, 0, .AHEAD. ) ;
#94 = CIRCLE ( 'NONE', #126, 0.2599999999999990097 ) ;
#95 = COORDINATED_UNIVERSAL_TIME_OFFSET ( 1, 0, .AHEAD. ) ;
#96 = EDGE_CURVE ( 'NONE', #68, #68, #137, .T. ) ;
#97 = CALENDAR_DATE ( 2021, 8, 10 ) ;
#98 = PERSON_AND_ORGANIZATION_ROLE ( 'creator' ) ;
#99 = MANIFOLD_SOLID_BREP ( 'Corps-Déplacer/Copier1[1]', #62 ) ;
#100 = CARTESIAN_POINT ( 'NONE',  ( 1.709321793543046728E-14, 0.4999999999999963363, 4.895692193816544524 ) ) ;
#101 = DIRECTION ( 'NONE',  ( 4.275831445896958607E-31, 1.000000000000000000, 1.224646799147353207E-16 ) ) ;
#102 = CARTESIAN_POINT ( 'NONE',  ( 1.709321793543046728E-14, -5.995493774768114963E-16, 4.895692193816544524 ) ) ;
#103 = DATE_AND_TIME ( #118, #110 ) ;
#104 = CALENDAR_DATE ( 2021, 8, 10 ) ;
#105 = AXIS2_PLACEMENT_3D ( 'NONE', #34, #191, #206 ) ;
#106 = DIRECTION ( 'NONE',  ( -3.491481338843133355E-15, 1.224646799147353207E-16, -1.000000000000000000 ) ) ;
#107 = EDGE_LOOP ( 'NONE', ( #6 ) ) ;
#108 = APPROVAL ( #147, 'UNSPECIFIED' ) ;
#109 = AXIS2_PLACEMENT_3D ( 'NONE', #26, #197, #139 ) ;
#110 = LOCAL_TIME ( 7, 14, 21.00000000000000000, #134 ) ;
#111 = FACE_OUTER_BOUND ( 'NONE', #87, .T. ) ;
#112 = PLANE ( 'NONE',  #190 ) ;
#113 = APPROVAL_STATUS ( 'not_yet_approved' ) ;
#114 = EDGE_LOOP ( 'NONE', ( #202 ) ) ;
#115 = EDGE_CURVE ( 'NONE', #117, #117, #204, .T. ) ;
#116 = EDGE_LOOP ( 'NONE', ( #13 ) ) ;
#117 = VERTEX_POINT ( 'NONE', #138 ) ;
#118 = CALENDAR_DATE ( 2021, 8, 10 ) ;
#119 = ADVANCED_FACE ( 'NONE', ( #76 ), #143, .T. ) ;
#120 = FACE_OUTER_BOUND ( 'NONE', #114, .T. ) ;
#121 = EDGE_LOOP ( 'NONE', ( #220 ) ) ;
#122 = VERTEX_POINT ( 'NONE', #136 ) ;
#123 = ORIENTED_EDGE ( 'NONE', *, *, #55, .T. ) ;
#124 = PERSON_AND_ORGANIZATION ( #208, #4 ) ;
#125 = CIRCLE ( 'NONE', #105, 0.3999999999999989675 ) ;
#126 = AXIS2_PLACEMENT_3D ( 'NONE', #173, #17, #21 ) ;
#127 = EDGE_CURVE ( 'NONE', #219, #219, #125, .T. ) ;
#128 = DIRECTION ( 'NONE',  ( 3.491481338843133355E-15, -1.224646799147353207E-16, 1.000000000000000000 ) ) ;
#129 = CC_DESIGN_APPROVAL ( #14, ( #27 ) ) ;
#130 = CALENDAR_DATE ( 2021, 8, 10 ) ;
#131 = PERSON_AND_ORGANIZATION_ROLE ( 'classification_officer' ) ;
#132 = ORIENTED_EDGE ( 'NONE', *, *, #96, .T. ) ;
#133 = EDGE_LOOP ( 'NONE', ( #149 ) ) ;
#134 = COORDINATED_UNIVERSAL_TIME_OFFSET ( 1, 0, .AHEAD. ) ;
#135 = ADVANCED_FACE ( 'NONE', ( #111 ), #112, .F. ) ;
#136 = CARTESIAN_POINT ( 'NONE',  ( 1.396592535537253658E-14, 0.2599999999999991762, 4.000000000000000888 ) ) ;
#137 = CIRCLE ( 'NONE', #33, 0.4999999999999970024 ) ;
#138 = CARTESIAN_POINT ( 'NONE',  ( 1.396592535537253658E-14, 0.2599999999999991762, 4.000000000000000888 ) ) ;
#139 = DIRECTION ( 'NONE',  ( -4.275831445896958607E-31, -1.000000000000000000, -1.224646799147353207E-16 ) ) ;
#140 = PERSON_AND_ORGANIZATION_ROLE ( 'design_owner' ) ;
#141 = CARTESIAN_POINT ( 'NONE',  ( 0.0000000000000000000, 0.0000000000000000000, 0.0000000000000000000 ) ) ;
#142 = SHAPE_DEFINITION_REPRESENTATION ( #32, #79 ) ;
#143 = PLANE ( 'NONE',  #160 ) ;
#144 = EDGE_CURVE ( 'NONE', #122, #122, #91, .T. ) ;
#145 = DIRECTION ( 'NONE',  ( 0.0000000000000000000, 1.000000000000000000, 0.0000000000000000000 ) ) ;
#146 = DATE_AND_TIME ( #97, #89 ) ;
#147 = APPROVAL_STATUS ( 'not_yet_approved' ) ;
#148 = PERSON_AND_ORGANIZATION ( #208, #4 ) ;
#149 = ORIENTED_EDGE ( 'NONE', *, *, #179, .T. ) ;
#150 = FACE_OUTER_BOUND ( 'NONE', #42, .T. ) ;
#151 = AXIS2_PLACEMENT_3D ( 'NONE', #175, #35, #189 ) ;
#152 = DATE_AND_TIME ( #104, #82 ) ;
#153 = CARTESIAN_POINT ( 'NONE',  ( 0.0000000000000000000, 0.0000000000000000000, 0.0000000000000000000 ) ) ;
#154 = EDGE_LOOP ( 'NONE', ( #123 ) ) ;
#155 = APPLICATION_PROTOCOL_DEFINITION ( 'international standard', 'config_control_design', 1994, #77 ) ;
#156 = CC_DESIGN_SECURITY_CLASSIFICATION ( #27, ( #183 ) ) ;
#157 = ADVANCED_FACE ( 'NONE', ( #75 ), #23, .T. ) ;
#158 = DIRECTION ( 'NONE',  ( 3.491481338843133355E-15, -1.224646799147353207E-16, 1.000000000000000000 ) ) ;
#159 = ADVANCED_FACE ( 'NONE', ( #205, #54 ), #20, .T. ) ;
#160 = AXIS2_PLACEMENT_3D ( 'NONE', #58, #128, #59 ) ;
#161 = APPROVAL_PERSON_ORGANIZATION ( #50, #108, #66 ) ;
#162 = APPROVAL_ROLE ( '' ) ;
#163 = APPROVAL_STATUS ( 'not_yet_approved' ) ;
#164 = AXIS2_PLACEMENT_3D ( 'NONE', #184, #177, #81 ) ;
#165 = CC_DESIGN_PERSON_AND_ORGANIZATION_ASSIGNMENT ( #8, #140, ( #15 ) ) ;
#166 = CYLINDRICAL_SURFACE ( 'NONE', #176, 0.4999999999999980571 ) ;
#167 = CALENDAR_DATE ( 2021, 8, 10 ) ;
#168 = CARTESIAN_POINT ( 'NONE',  ( 0.0000000000000000000, 0.0000000000000000000, 0.0000000000000000000 ) ) ;
#169 = CYLINDRICAL_SURFACE ( 'NONE', #213, 0.2599999999999993427 ) ;
#170 = AXIS2_PLACEMENT_3D ( 'NONE', #102, #187, #203 ) ;
#171 = CC_DESIGN_PERSON_AND_ORGANIZATION_ASSIGNMENT ( #124, #188, ( #1 ) ) ;
#172 = MANIFOLD_SOLID_BREP ( 'Corps-Déplacer/Copier1[2]', #181 ) ;
#173 = CARTESIAN_POINT ( 'NONE',  ( 5.454523460309235546E-16, -1.913189287947090777E-17, 0.1562237609471667787 ) ) ;
#174 = DIRECTION ( 'NONE',  ( 4.275831445896958607E-31, 1.000000000000000000, 1.224646799147353207E-16 ) ) ;
#175 = CARTESIAN_POINT ( 'NONE',  ( 1.047444401652940007E-13, -3.673940397442059178E-15, 30.00000000000000000 ) ) ;
#176 = AXIS2_PLACEMENT_3D ( 'NONE', #141, #70, #65 ) ;
#177 = DIRECTION ( 'NONE',  ( -3.491481338843133355E-15, 1.224646799147353207E-16, -1.000000000000000000 ) ) ;
#178 = PERSON_AND_ORGANIZATION ( #208, #4 ) ;
#179 = EDGE_CURVE ( 'NONE', #199, #199, #94, .T. ) ;
#180 =( NAMED_UNIT ( * ) SI_UNIT ( $, .STERADIAN. ) SOLID_ANGLE_UNIT ( ) );
#181 = CLOSED_SHELL ( 'NONE', ( #157, #61, #119 ) ) ;
#182 =( NAMED_UNIT ( * ) PLANE_ANGLE_UNIT ( ) SI_UNIT ( $, .RADIAN. ) );
#183 = PRODUCT_DEFINITION_FORMATION_WITH_SPECIFIED_SOURCE ( 'ANY', '', #15, .NOT_KNOWN. ) ;
#184 = CARTESIAN_POINT ( 'NONE',  ( 1.396592535537253658E-14, -4.898587196589413815E-16, 4.000000000000000888 ) ) ;
#185 = CARTESIAN_POINT ( 'NONE',  ( 1.043952920314096936E-13, -3.661693929450586610E-15, 29.90000000000000213 ) ) ;
#186 = EDGE_LOOP ( 'NONE', ( #71 ) ) ;
#187 = DIRECTION ( 'NONE',  ( 3.491481338843133355E-15, -1.224646799147353207E-16, 1.000000000000000000 ) ) ;
#188 = PERSON_AND_ORGANIZATION_ROLE ( 'creator' ) ;
#189 = DIRECTION ( 'NONE',  ( 0.0000000000000000000, 1.000000000000000000, 0.0000000000000000000 ) ) ;
#190 = AXIS2_PLACEMENT_3D ( 'NONE', #192, #19, #174 ) ;
#191 = DIRECTION ( 'NONE',  ( -3.491481338843133355E-15, 1.224646799147353207E-16, -1.000000000000000000 ) ) ;
#192 = CARTESIAN_POINT ( 'NONE',  ( 1.047444401652940007E-13, 2.999519565323652267E-33, 30.00000000000000000 ) ) ;
#193 = ADVANCED_FACE ( 'NONE', ( #43, #150 ), #12, .T. ) ;
#194 = PERSON_AND_ORGANIZATION ( #208, #4 ) ;
#195 = DATE_AND_TIME ( #130, #7 ) ;
#196 = COORDINATED_UNIVERSAL_TIME_OFFSET ( 1, 0, .AHEAD. ) ;
#197 = DIRECTION ( 'NONE',  ( 3.491481338843133355E-15, -1.224646799147353207E-16, 1.000000000000000000 ) ) ;
#198 = CIRCLE ( 'NONE', #39, 0.4999999999999991673 ) ;
#199 = VERTEX_POINT ( 'NONE', #41 ) ;
#200 = PERSON_AND_ORGANIZATION ( #208, #4 ) ;
#201 = DIRECTION ( 'NONE',  ( 0.0000000000000000000, 1.000000000000000000, 0.0000000000000000000 ) ) ;
#202 = ORIENTED_EDGE ( 'NONE', *, *, #144, .T. ) ;
#203 = DIRECTION ( 'NONE',  ( 0.0000000000000000000, -1.000000000000000000, 0.0000000000000000000 ) ) ;
#204 = CIRCLE ( 'NONE', #164, 0.2599999999999996758 ) ;
#205 = FACE_OUTER_BOUND ( 'NONE', #186, .T. ) ;
#206 = DIRECTION ( 'NONE',  ( 0.0000000000000000000, 1.000000000000000000, 0.0000000000000000000 ) ) ;
#207 = CARTESIAN_POINT ( 'NONE',  ( 5.454523460309235546E-16, -1.913189287947090777E-17, 0.1562237609471667787 ) ) ;
#208 = PERSON ( 'UNSPECIFIED', 'UNSPECIFIED', 'UNSPECIFIED', ('UNSPECIFIED'), ('UNSPECIFIED'), ('UNSPECIFIED') ) ;
#209 = DESIGN_CONTEXT ( 'detailed design', #211, 'design' ) ;
#210 = DIRECTION ( 'NONE',  ( -3.491481338843133355E-15, 1.224646799147353207E-16, -1.000000000000000000 ) ) ;
#211 = APPLICATION_CONTEXT ( 'configuration controlled 3d designs of mechanical parts and assemblies' ) ;
#212 = DATE_AND_TIME ( #167, #2 ) ;
#213 = AXIS2_PLACEMENT_3D ( 'NONE', #153, #218, #101 ) ;
#214 = DATE_TIME_ROLE ( 'creation_date' ) ;
#215 = ORIENTED_EDGE ( 'NONE', *, *, #144, .F. ) ;
#216 = APPROVAL_PERSON_ORGANIZATION ( #194, #14, #162 ) ;
#217 = CARTESIAN_POINT ( 'NONE',  ( 1.043952920314096936E-13, 0.4999999999999954481, 29.90000000000000213 ) ) ;
#218 = DIRECTION ( 'NONE',  ( -3.491481338843133355E-15, 1.224646799147353207E-16, -1.000000000000000000 ) ) ;
#219 = VERTEX_POINT ( 'NONE', #72 ) ;
#220 = ORIENTED_EDGE ( 'NONE', *, *, #115, .T. ) ;
#221 = AXIS2_PLACEMENT_3D ( 'NONE', #207, #158, #56 ) ;
#222 = FACE_OUTER_BOUND ( 'NONE', #154, .T. ) ;
#223 = ORIENTED_EDGE ( 'NONE', *, *, #127, .F. ) ;
ENDSEC;
END-ISO-10303-21;
