ISO-10303-21;
HEADER;
FILE_DESCRIPTION (( 'STEP AP203' ),
    '1' );
FILE_NAME ('55303.step',
    '2021-10-08T05:14:20',
    ( '' ),
    ( '' ),
    'SwSTEP 2.0',
    'SolidWorks 2019',
    '' );
FILE_SCHEMA (( 'CONFIG_CONTROL_DESIGN' ));
ENDSEC;

DATA;
#1 = COORDINATED_UNIVERSAL_TIME_OFFSET ( 1, 0, .AHEAD. ) ;
#2 = AXIS2_PLACEMENT_3D ( 'NONE', #87, #162, #103 ) ;
#3 = SECURITY_CLASSIFICATION ( '', '', #72 ) ;
#4 = DIRECTION ( 'NONE',  ( 1.000000000000000000, 0.0000000000000000000, 0.0000000000000000000 ) ) ;
#5 = DIRECTION ( 'NONE',  ( -3.491481338843133355E-15, 1.224646799147353207E-16, -1.000000000000000000 ) ) ;
#6 = DATE_AND_TIME ( #163, #84 ) ;
#7 = ADVANCED_FACE ( 'NONE', ( #126 ), #25, .T. ) ;
#8 = PERSON_AND_ORGANIZATION ( #81, #102 ) ;
#9 = CIRCLE ( 'NONE', #39, 0.3999999999999989675 ) ;
#10 = DATE_TIME_ROLE ( 'classification_date' ) ;
#11 = EDGE_LOOP ( 'NONE', ( #168 ) ) ;
#12 = EDGE_LOOP ( 'NONE', ( #201 ) ) ;
#13 = CARTESIAN_POINT ( 'NONE',  ( 1.043952920314096936E-13, -3.661693929450586610E-15, 29.90000000000000213 ) ) ;
#14 = CARTESIAN_POINT ( 'NONE',  ( 1.396592535537253342E-14, 1.912193722893858118E-33, 4.000000000000000000 ) ) ;
#15 = APPROVAL_PERSON_ORGANIZATION ( #23, #186, #33 ) ;
#16 = DIRECTION ( 'NONE',  ( -3.491481338843133355E-15, 1.224646799147353207E-16, -1.000000000000000000 ) ) ;
#17 = FACE_OUTER_BOUND ( 'NONE', #75, .T. ) ;
#18 = DIRECTION ( 'NONE',  ( -3.491481338843133355E-15, 1.224646799147353207E-16, -1.000000000000000000 ) ) ;
#19 = CC_DESIGN_PERSON_AND_ORGANIZATION_ASSIGNMENT ( #104, #91, ( #157 ) ) ;
#20 = AXIS2_PLACEMENT_3D ( 'NONE', #184, #38, #223 ) ;
#21 = DATE_TIME_ROLE ( 'creation_date' ) ;
#22 = DIRECTION ( 'NONE',  ( 0.0000000000000000000, 0.0000000000000000000, 1.000000000000000000 ) ) ;
#23 = PERSON_AND_ORGANIZATION ( #81, #102 ) ;
#24 = ORIENTED_EDGE ( 'NONE', *, *, #89, .T. ) ;
#25 = PLANE ( 'NONE',  #65 ) ;
#26 = ORIENTED_EDGE ( 'NONE', *, *, #111, .T. ) ;
#27 = CIRCLE ( 'NONE', #176, 0.2549999999999990608 ) ;
#28 = FACE_OUTER_BOUND ( 'NONE', #181, .T. ) ;
#29 = CARTESIAN_POINT ( 'NONE',  ( 1.396592535537253342E-14, 1.912193722893858118E-33, 4.000000000000000000 ) ) ;
#30 = FACE_OUTER_BOUND ( 'NONE', #149, .T. ) ;
#31 = EDGE_CURVE ( 'NONE', #172, #172, #192, .T. ) ;
#32 = PLANE ( 'NONE',  #217 ) ;
#33 = APPROVAL_ROLE ( '' ) ;
#34 = APPROVAL_DATE_TIME ( #195, #186 ) ;
#35 = APPROVAL_ROLE ( '' ) ;
#36 = APPROVAL_DATE_TIME ( #124, #148 ) ;
#37 = ORIENTED_EDGE ( 'NONE', *, *, #154, .T. ) ;
#38 = DIRECTION ( 'NONE',  ( -3.491481338843133355E-15, 1.224646799147353207E-16, -1.000000000000000000 ) ) ;
#39 = AXIS2_PLACEMENT_3D ( 'NONE', #216, #143, #101 ) ;
#40 = CARTESIAN_POINT ( 'NONE',  ( 1.715836986418167239E-14, -6.018345995146837185E-16, 4.914352447854389183 ) ) ;
#41 = FACE_OUTER_BOUND ( 'NONE', #11, .T. ) ;
#42 = DIRECTION ( 'NONE',  ( 0.0000000000000000000, 1.000000000000000000, 0.0000000000000000000 ) ) ;
#43 = CIRCLE ( 'NONE', #189, 0.4999999999999970024 ) ;
#44 = PRODUCT_RELATED_PRODUCT_CATEGORY ( 'detail', '', ( #146 ) ) ;
#45 = COORDINATED_UNIVERSAL_TIME_OFFSET ( 1, 0, .AHEAD. ) ;
#46 = COORDINATED_UNIVERSAL_TIME_OFFSET ( 1, 0, .AHEAD. ) ;
#47 = AXIS2_PLACEMENT_3D ( 'NONE', #29, #98, #63 ) ;
#48 = CC_DESIGN_SECURITY_CLASSIFICATION ( #3, ( #157 ) ) ;
#49 = EDGE_CURVE ( 'NONE', #152, #152, #9, .T. ) ;
#50 = CONICAL_SURFACE ( 'NONE', #20, 0.3999999999999989675, 0.7853981633974694843 ) ;
#51 = COORDINATED_UNIVERSAL_TIME_OFFSET ( 1, 0, .AHEAD. ) ;
#52 = DIRECTION ( 'NONE',  ( -4.275831445896958607E-31, -1.000000000000000000, -1.224646799147353207E-16 ) ) ;
#53 = CIRCLE ( 'NONE', #159, 0.2549999999999996159 ) ;
#54 = CC_DESIGN_APPROVAL ( #148, ( #3 ) ) ;
#55 = EDGE_LOOP ( 'NONE', ( #116 ) ) ;
#56 = PRODUCT_DEFINITION ( 'UNKNOWN', '', #157, #131 ) ;
#57 = FACE_BOUND ( 'NONE', #62, .T. ) ;
#58 = VERTEX_POINT ( 'NONE', #60 ) ;
#59 = CONICAL_SURFACE ( 'NONE', #2, 0.4999999999999970024, 0.2617993877991428020 ) ;
#60 = CARTESIAN_POINT ( 'NONE',  ( 1.396592535537253342E-14, 0.2549999999999991718, 4.000000000000000000 ) ) ;
#61 = ADVANCED_FACE ( 'NONE', ( #68, #193 ), #59, .T. ) ;
#62 = EDGE_LOOP ( 'NONE', ( #221 ) ) ;
#63 = DIRECTION ( 'NONE',  ( -4.275831445896958607E-31, -1.000000000000000000, -1.224646799147353207E-16 ) ) ;
#64 = CARTESIAN_POINT ( 'NONE',  ( 1.047444401652940007E-13, 2.999519565323652267E-33, 30.00000000000000000 ) ) ;
#65 = AXIS2_PLACEMENT_3D ( 'NONE', #14, #214, #52 ) ;
#66 = PERSON_AND_ORGANIZATION ( #81, #102 ) ;
#67 = APPROVAL_STATUS ( 'not_yet_approved' ) ;
#68 = FACE_BOUND ( 'NONE', #125, .T. ) ;
#69 = CIRCLE ( 'NONE', #93, 0.2549999999999996159 ) ;
#70 = APPLICATION_CONTEXT ( 'configuration controlled 3d designs of mechanical parts and assemblies' ) ;
#71 = PERSON_AND_ORGANIZATION_ROLE ( 'creator' ) ;
#72 = SECURITY_CLASSIFICATION_LEVEL ( 'unclassified' ) ;
#73 = AXIS2_PLACEMENT_3D ( 'NONE', #13, #169, #145 ) ;
#74 = SHAPE_DEFINITION_REPRESENTATION ( #108, #202 ) ;
#75 = EDGE_LOOP ( 'NONE', ( #77 ) ) ;
#76 = ORIENTED_EDGE ( 'NONE', *, *, #119, .T. ) ;
#77 = ORIENTED_EDGE ( 'NONE', *, *, #49, .F. ) ;
#78 = APPROVAL_PERSON_ORGANIZATION ( #211, #148, #35 ) ;
#79 = ORIENTED_EDGE ( 'NONE', *, *, #111, .F. ) ;
#80 = DIRECTION ( 'NONE',  ( 4.275831445896957731E-31, 1.000000000000000000, 1.224646799147353207E-16 ) ) ;
#81 = PERSON ( 'UNSPECIFIED', 'UNSPECIFIED', 'UNSPECIFIED', ('UNSPECIFIED'), ('UNSPECIFIED'), ('UNSPECIFIED') ) ;
#82 = FACE_OUTER_BOUND ( 'NONE', #55, .T. ) ;
#83 = AXIS2_PLACEMENT_3D ( 'NONE', #197, #22, #4 ) ;
#84 = LOCAL_TIME ( 7, 14, 20.00000000000000000, #158 ) ;
#85 = CARTESIAN_POINT ( 'NONE',  ( 1.043952920314096936E-13, 0.4999999999999954481, 29.90000000000000213 ) ) ;
#86 = CLOSED_SHELL ( 'NONE', ( #177, #61, #165, #135, #121 ) ) ;
#87 = CARTESIAN_POINT ( 'NONE',  ( 1.715836986418167239E-14, -6.018345995146837185E-16, 4.914352447854389183 ) ) ;
#88 = PERSON_AND_ORGANIZATION_ROLE ( 'classification_officer' ) ;
#89 = EDGE_CURVE ( 'NONE', #220, #220, #69, .T. ) ;
#90 = APPLICATION_PROTOCOL_DEFINITION ( 'international standard', 'config_control_design', 1994, #213 ) ;
#91 = PERSON_AND_ORGANIZATION_ROLE ( 'creator' ) ;
#92 = EDGE_LOOP ( 'NONE', ( #76 ) ) ;
#93 = AXIS2_PLACEMENT_3D ( 'NONE', #151, #5, #215 ) ;
#94 = MANIFOLD_SOLID_BREP ( 'Corps-Déplacer/Copier1[2]', #210 ) ;
#95 = MANIFOLD_SOLID_BREP ( 'Corps-Déplacer/Copier1[1]', #86 ) ;
#96 = CYLINDRICAL_SURFACE ( 'NONE', #105, 0.4999999999999980571 ) ;
#97 = CARTESIAN_POINT ( 'NONE',  ( 0.0000000000000000000, 0.0000000000000000000, 0.0000000000000000000 ) ) ;
#98 = DIRECTION ( 'NONE',  ( 3.491481338843133355E-15, -1.224646799147353207E-16, 1.000000000000000000 ) ) ;
#99 = UNCERTAINTY_MEASURE_WITH_UNIT (LENGTH_MEASURE( 1.000000000000000082E-05 ), #147, 'distance_accuracy_value', 'NONE');
#100 = CARTESIAN_POINT ( 'NONE',  ( 1.715836986418167239E-14, 0.4999999999999963363, 4.914352447854389183 ) ) ;
#101 = DIRECTION ( 'NONE',  ( 0.0000000000000000000, 1.000000000000000000, 0.0000000000000000000 ) ) ;
#102 = ORGANIZATION ( 'UNSPECIFIED', 'UNSPECIFIED', '' ) ;
#103 = DIRECTION ( 'NONE',  ( 0.0000000000000000000, -1.000000000000000000, 0.0000000000000000000 ) ) ;
#104 = PERSON_AND_ORGANIZATION ( #81, #102 ) ;
#105 = AXIS2_PLACEMENT_3D ( 'NONE', #185, #150, #110 ) ;
#106 = CALENDAR_DATE ( 2021, 8, 10 ) ;
#107 = APPROVAL ( #67, 'UNSPECIFIED' ) ;
#108 = PRODUCT_DEFINITION_SHAPE ( 'NONE', 'NONE',  #56 ) ;
#109 = ORIENTED_EDGE ( 'NONE', *, *, #154, .F. ) ;
#110 = DIRECTION ( 'NONE',  ( 4.275831445896958607E-31, 1.000000000000000000, 1.224646799147353207E-16 ) ) ;
#111 = EDGE_CURVE ( 'NONE', #58, #58, #53, .T. ) ;
#112 =( GEOMETRIC_REPRESENTATION_CONTEXT ( 3 ) GLOBAL_UNCERTAINTY_ASSIGNED_CONTEXT ( ( #99 ) ) GLOBAL_UNIT_ASSIGNED_CONTEXT ( ( #147, #173, #183 ) ) REPRESENTATION_CONTEXT ( 'NONE', 'WORKASPACE' ) );
#113 = LOCAL_TIME ( 7, 14, 20.00000000000000000, #46 ) ;
#114 = DIRECTION ( 'NONE',  ( -3.491481338843133355E-15, 1.224646799147353207E-16, -1.000000000000000000 ) ) ;
#115 = FACE_OUTER_BOUND ( 'NONE', #199, .T. ) ;
#116 = ORIENTED_EDGE ( 'NONE', *, *, #119, .F. ) ;
#117 = CARTESIAN_POINT ( 'NONE',  ( 1.396592535537253342E-14, 0.2549999999999991718, 4.000000000000000000 ) ) ;
#118 = CONICAL_SURFACE ( 'NONE', #122, 0.2549999999999990608, 1.029744258676649649 ) ;
#119 = EDGE_CURVE ( 'NONE', #130, #130, #43, .T. ) ;
#120 = MECHANICAL_CONTEXT ( 'NONE', #213, 'mechanical' ) ;
#121 = ADVANCED_FACE ( 'NONE', ( #17 ), #32, .F. ) ;
#122 = AXIS2_PLACEMENT_3D ( 'NONE', #129, #203, #218 ) ;
#123 = CALENDAR_DATE ( 2021, 8, 10 ) ;
#124 = DATE_AND_TIME ( #175, #132 ) ;
#125 = EDGE_LOOP ( 'NONE', ( #79 ) ) ;
#126 = FACE_OUTER_BOUND ( 'NONE', #12, .T. ) ;
#127 = CC_DESIGN_DATE_AND_TIME_ASSIGNMENT ( #190, #21, ( #56 ) ) ;
#128 = ORIENTED_EDGE ( 'NONE', *, *, #31, .F. ) ;
#129 = CARTESIAN_POINT ( 'NONE',  ( 5.349628778380212715E-16, -1.876397186255801044E-17, 0.1532194578520290063 ) ) ;
#130 = VERTEX_POINT ( 'NONE', #100 ) ;
#131 = DESIGN_CONTEXT ( 'detailed design', #70, 'design' ) ;
#132 = LOCAL_TIME ( 7, 14, 20.00000000000000000, #51 ) ;
#133 = CARTESIAN_POINT ( 'NONE',  ( 5.349628778380213701E-16, 0.2549999999999990608, 0.1532194578520290340 ) ) ;
#134 = DIRECTION ( 'NONE',  ( -3.491481338843133355E-15, 1.224646799147353207E-16, -1.000000000000000000 ) ) ;
#135 = ADVANCED_FACE ( 'NONE', ( #171, #57 ), #50, .T. ) ;
#136 = CYLINDRICAL_SURFACE ( 'NONE', #179, 0.2549999999999993938 ) ;
#137 = APPROVAL_STATUS ( 'not_yet_approved' ) ;
#138 = DATE_AND_TIME ( #123, #207 ) ;
#139 = CC_DESIGN_APPROVAL ( #107, ( #56 ) ) ;
#140 = APPROVAL_DATE_TIME ( #138, #107 ) ;
#141 = PERSON_AND_ORGANIZATION ( #81, #102 ) ;
#142 = PERSON_AND_ORGANIZATION_ROLE ( 'design_supplier' ) ;
#143 = DIRECTION ( 'NONE',  ( -3.491481338843133355E-15, 1.224646799147353207E-16, -1.000000000000000000 ) ) ;
#144 = DIRECTION ( 'NONE',  ( -3.491481338843133355E-15, 1.224646799147353207E-16, -1.000000000000000000 ) ) ;
#145 = DIRECTION ( 'NONE',  ( 0.0000000000000000000, 1.000000000000000000, 0.0000000000000000000 ) ) ;
#146 = PRODUCT ( '55303', '55303', '', ( #120 ) ) ;
#147 =( LENGTH_UNIT ( ) NAMED_UNIT ( * ) SI_UNIT ( .MILLI., .METRE. ) );
#148 = APPROVAL ( #209, 'UNSPECIFIED' ) ;
#149 = EDGE_LOOP ( 'NONE', ( #37 ) ) ;
#150 = DIRECTION ( 'NONE',  ( -3.491481338843133355E-15, 1.224646799147353207E-16, -1.000000000000000000 ) ) ;
#151 = CARTESIAN_POINT ( 'NONE',  ( 1.396592535537253342E-14, -4.898587196589412829E-16, 4.000000000000000000 ) ) ;
#152 = VERTEX_POINT ( 'NONE', #187 ) ;
#153 = DIRECTION ( 'NONE',  ( 3.776333224288711704E-31, 1.000000000000000000, 1.062943306358341608E-16 ) ) ;
#154 = EDGE_CURVE ( 'NONE', #206, #206, #27, .T. ) ;
#155 = EDGE_LOOP ( 'NONE', ( #26 ) ) ;
#156 = CALENDAR_DATE ( 2021, 8, 10 ) ;
#157 = PRODUCT_DEFINITION_FORMATION_WITH_SPECIFIED_SOURCE ( 'ANY', '', #146, .NOT_KNOWN. ) ;
#158 = COORDINATED_UNIVERSAL_TIME_OFFSET ( 1, 0, .AHEAD. ) ;
#159 = AXIS2_PLACEMENT_3D ( 'NONE', #167, #144, #188 ) ;
#160 = CC_DESIGN_APPROVAL ( #186, ( #157 ) ) ;
#161 = CC_DESIGN_PERSON_AND_ORGANIZATION_ASSIGNMENT ( #141, #88, ( #3 ) ) ;
#162 = DIRECTION ( 'NONE',  ( 3.491481338843133355E-15, -1.224646799147353207E-16, 1.000000000000000000 ) ) ;
#163 = CALENDAR_DATE ( 2021, 8, 10 ) ;
#164 = PERSON_AND_ORGANIZATION ( #81, #102 ) ;
#165 = ADVANCED_FACE ( 'NONE', ( #82, #41 ), #96, .T. ) ;
#166 = EDGE_LOOP ( 'NONE', ( #128 ) ) ;
#167 = CARTESIAN_POINT ( 'NONE',  ( 1.396592535537253342E-14, -4.898587196589412829E-16, 4.000000000000000000 ) ) ;
#168 = ORIENTED_EDGE ( 'NONE', *, *, #31, .T. ) ;
#169 = DIRECTION ( 'NONE',  ( -3.491481338843133355E-15, 1.224646799147353207E-16, -1.000000000000000000 ) ) ;
#170 = ADVANCED_FACE ( 'NONE', ( #30 ), #118, .T. ) ;
#171 = FACE_OUTER_BOUND ( 'NONE', #166, .T. ) ;
#172 = VERTEX_POINT ( 'NONE', #85 ) ;
#173 =( NAMED_UNIT ( * ) PLANE_ANGLE_UNIT ( ) SI_UNIT ( $, .RADIAN. ) );
#174 = FACE_OUTER_BOUND ( 'NONE', #155, .T. ) ;
#175 = CALENDAR_DATE ( 2021, 8, 10 ) ;
#176 = AXIS2_PLACEMENT_3D ( 'NONE', #205, #18, #153 ) ;
#177 = ADVANCED_FACE ( 'NONE', ( #174 ), #219, .F. ) ;
#178 = APPLICATION_PROTOCOL_DEFINITION ( 'international standard', 'config_control_design', 1994, #70 ) ;
#179 = AXIS2_PLACEMENT_3D ( 'NONE', #97, #16, #80 ) ;
#180 = APPROVAL_ROLE ( '' ) ;
#181 = EDGE_LOOP ( 'NONE', ( #24 ) ) ;
#182 = CC_DESIGN_PERSON_AND_ORGANIZATION_ASSIGNMENT ( #164, #212, ( #146 ) ) ;
#183 =( NAMED_UNIT ( * ) SI_UNIT ( $, .STERADIAN. ) SOLID_ANGLE_UNIT ( ) );
#184 = CARTESIAN_POINT ( 'NONE',  ( 1.047444401652940007E-13, -3.673940397442059178E-15, 30.00000000000000000 ) ) ;
#185 = CARTESIAN_POINT ( 'NONE',  ( 0.0000000000000000000, 0.0000000000000000000, 0.0000000000000000000 ) ) ;
#186 = APPROVAL ( #137, 'UNSPECIFIED' ) ;
#187 = CARTESIAN_POINT ( 'NONE',  ( 1.047444401652940007E-13, 0.3999999999999953038, 30.00000000000000000 ) ) ;
#188 = DIRECTION ( 'NONE',  ( 0.0000000000000000000, 1.000000000000000000, 0.0000000000000000000 ) ) ;
#189 = AXIS2_PLACEMENT_3D ( 'NONE', #40, #134, #42 ) ;
#190 = DATE_AND_TIME ( #156, #204 ) ;
#191 = CC_DESIGN_DATE_AND_TIME_ASSIGNMENT ( #6, #10, ( #3 ) ) ;
#192 = CIRCLE ( 'NONE', #73, 0.4999999999999991673 ) ;
#193 = FACE_OUTER_BOUND ( 'NONE', #92, .T. ) ;
#194 = CC_DESIGN_PERSON_AND_ORGANIZATION_ASSIGNMENT ( #66, #71, ( #56 ) ) ;
#195 = DATE_AND_TIME ( #106, #113 ) ;
#196 = APPROVAL_PERSON_ORGANIZATION ( #8, #107, #180 ) ;
#197 = CARTESIAN_POINT ( 'NONE',  ( 0.0000000000000000000, 0.0000000000000000000, 0.0000000000000000000 ) ) ;
#198 = PERSON_AND_ORGANIZATION ( #81, #102 ) ;
#199 = EDGE_LOOP ( 'NONE', ( #109 ) ) ;
#200 = CC_DESIGN_PERSON_AND_ORGANIZATION_ASSIGNMENT ( #198, #142, ( #157 ) ) ;
#201 = ORIENTED_EDGE ( 'NONE', *, *, #89, .F. ) ;
#202 = ADVANCED_BREP_SHAPE_REPRESENTATION ( '55303', ( #95, #94, #83 ), #112 ) ;
#203 = DIRECTION ( 'NONE',  ( 3.491481338843133355E-15, -1.224646799147353207E-16, 1.000000000000000000 ) ) ;
#204 = LOCAL_TIME ( 7, 14, 20.00000000000000000, #1 ) ;
#205 = CARTESIAN_POINT ( 'NONE',  ( 5.349628778380212715E-16, -1.876397186255801044E-17, 0.1532194578520290063 ) ) ;
#206 = VERTEX_POINT ( 'NONE', #133 ) ;
#207 = LOCAL_TIME ( 7, 14, 20.00000000000000000, #45 ) ;
#208 = ADVANCED_FACE ( 'NONE', ( #115, #28 ), #136, .T. ) ;
#209 = APPROVAL_STATUS ( 'not_yet_approved' ) ;
#210 = CLOSED_SHELL ( 'NONE', ( #170, #208, #7 ) ) ;
#211 = PERSON_AND_ORGANIZATION ( #81, #102 ) ;
#212 = PERSON_AND_ORGANIZATION_ROLE ( 'design_owner' ) ;
#213 = APPLICATION_CONTEXT ( 'configuration controlled 3d designs of mechanical parts and assemblies' ) ;
#214 = DIRECTION ( 'NONE',  ( 3.491481338843133355E-15, -1.224646799147353207E-16, 1.000000000000000000 ) ) ;
#215 = DIRECTION ( 'NONE',  ( 0.0000000000000000000, 1.000000000000000000, 0.0000000000000000000 ) ) ;
#216 = CARTESIAN_POINT ( 'NONE',  ( 1.047444401652940007E-13, -3.673940397442059178E-15, 30.00000000000000000 ) ) ;
#217 = AXIS2_PLACEMENT_3D ( 'NONE', #64, #114, #222 ) ;
#218 = DIRECTION ( 'NONE',  ( -3.776333224288711704E-31, -1.000000000000000000, -1.062943306358341608E-16 ) ) ;
#219 = PLANE ( 'NONE',  #47 ) ;
#220 = VERTEX_POINT ( 'NONE', #117 ) ;
#221 = ORIENTED_EDGE ( 'NONE', *, *, #49, .T. ) ;
#222 = DIRECTION ( 'NONE',  ( 4.275831445896958607E-31, 1.000000000000000000, 1.224646799147353207E-16 ) ) ;
#223 = DIRECTION ( 'NONE',  ( 0.0000000000000000000, 1.000000000000000000, 0.0000000000000000000 ) ) ;
ENDSEC;
END-ISO-10303-21;
