ISO-10303-21;
HEADER;
FILE_DESCRIPTION (( 'STEP AP203' ),
    '1' );
FILE_NAME ('55302.step',
    '2021-10-08T05:14:19',
    ( '' ),
    ( '' ),
    'SwSTEP 2.0',
    'SolidWorks 2019',
    '' );
FILE_SCHEMA (( 'CONFIG_CONTROL_DESIGN' ));
ENDSEC;

DATA;
#1 = CARTESIAN_POINT ( 'NONE',  ( 1.047444401652940007E-13, -3.673940397442059178E-15, 30.00000000000000000 ) ) ;
#2 = CYLINDRICAL_SURFACE ( 'NONE', #114, 0.4999999999999976130 ) ;
#3 = EDGE_LOOP ( 'NONE', ( #38 ) ) ;
#4 = FACE_OUTER_BOUND ( 'NONE', #71, .T. ) ;
#5 = EDGE_LOOP ( 'NONE', ( #50 ) ) ;
#6 = FACE_BOUND ( 'NONE', #192, .T. ) ;
#7 = DIRECTION ( 'NONE',  ( -3.491481338843133355E-15, 1.224646799147353207E-16, -1.000000000000000000 ) ) ;
#8 = CONICAL_SURFACE ( 'NONE', #24, 0.3999999999999989675, 0.7853981633974694843 ) ;
#9 = CC_DESIGN_PERSON_AND_ORGANIZATION_ASSIGNMENT ( #25, #120, ( #165 ) ) ;
#10 = EDGE_LOOP ( 'NONE', ( #23 ) ) ;
#11 = DATE_TIME_ROLE ( 'creation_date' ) ;
#12 = SHAPE_DEFINITION_REPRESENTATION ( #87, #32 ) ;
#13 = COORDINATED_UNIVERSAL_TIME_OFFSET ( 1, 0, .AHEAD. ) ;
#14 = UNCERTAINTY_MEASURE_WITH_UNIT (LENGTH_MEASURE( 1.000000000000000082E-05 ), #202, 'distance_accuracy_value', 'NONE');
#15 = LOCAL_TIME ( 7, 14, 19.00000000000000000, #121 ) ;
#16 = MANIFOLD_SOLID_BREP ( 'Corps-Déplacer/Copier1[2]', #88 ) ;
#17 = MANIFOLD_SOLID_BREP ( 'Corps-Déplacer/Copier1[1]', #79 ) ;
#18 = DIRECTION ( 'NONE',  ( -3.491481338843133355E-15, 1.224646799147353207E-16, -1.000000000000000000 ) ) ;
#19 = FACE_OUTER_BOUND ( 'NONE', #5, .T. ) ;
#20 = ORIENTED_EDGE ( 'NONE', *, *, #132, .F. ) ;
#21 = DIRECTION ( 'NONE',  ( 3.491481338843133355E-15, -1.224646799147353207E-16, 1.000000000000000000 ) ) ;
#22 = CARTESIAN_POINT ( 'NONE',  ( 0.0000000000000000000, 0.0000000000000000000, 0.0000000000000000000 ) ) ;
#23 = ORIENTED_EDGE ( 'NONE', *, *, #92, .T. ) ;
#24 = AXIS2_PLACEMENT_3D ( 'NONE', #153, #18, #96 ) ;
#25 = PERSON_AND_ORGANIZATION ( #193, #66 ) ;
#26 = FACE_OUTER_BOUND ( 'NONE', #10, .T. ) ;
#27 = APPLICATION_PROTOCOL_DEFINITION ( 'international standard', 'config_control_design', 1994, #206 ) ;
#28 = COORDINATED_UNIVERSAL_TIME_OFFSET ( 1, 0, .AHEAD. ) ;
#29 = PERSON_AND_ORGANIZATION ( #193, #66 ) ;
#30 = LOCAL_TIME ( 7, 14, 19.00000000000000000, #13 ) ;
#31 = AXIS2_PLACEMENT_3D ( 'NONE', #83, #7, #141 ) ;
#32 = ADVANCED_BREP_SHAPE_REPRESENTATION ( '55302', ( #17, #16, #60 ), #131 ) ;
#33 = CYLINDRICAL_SURFACE ( 'NONE', #101, 0.2499999999999982792 ) ;
#34 = FACE_OUTER_BOUND ( 'NONE', #3, .T. ) ;
#35 = DIRECTION ( 'NONE',  ( -3.491481338843133355E-15, 1.224646799147353207E-16, -1.000000000000000000 ) ) ;
#36 = ORIENTED_EDGE ( 'NONE', *, *, #154, .F. ) ;
#37 = PLANE ( 'NONE',  #59 ) ;
#38 = ORIENTED_EDGE ( 'NONE', *, *, #154, .T. ) ;
#39 = AXIS2_PLACEMENT_3D ( 'NONE', #98, #35, #70 ) ;
#40 = PRODUCT ( '55302', '55302', '', ( #42 ) ) ;
#41 = CC_DESIGN_DATE_AND_TIME_ASSIGNMENT ( #163, #11, ( #165 ) ) ;
#42 = MECHANICAL_CONTEXT ( 'NONE', #166, 'mechanical' ) ;
#43 = EDGE_CURVE ( 'NONE', #209, #209, #126, .T. ) ;
#44 = AXIS2_PLACEMENT_3D ( 'NONE', #63, #173, #78 ) ;
#45 = APPROVAL_PERSON_ORGANIZATION ( #29, #86, #110 ) ;
#46 = DIRECTION ( 'NONE',  ( -3.491481338843133355E-15, 1.224646799147353207E-16, -1.000000000000000000 ) ) ;
#47 = ADVANCED_FACE ( 'NONE', ( #56 ), #213, .F. ) ;
#48 = FACE_OUTER_BOUND ( 'NONE', #117, .T. ) ;
#49 = DIRECTION ( 'NONE',  ( -3.491481338843133355E-15, 1.224646799147353207E-16, -1.000000000000000000 ) ) ;
#50 = ORIENTED_EDGE ( 'NONE', *, *, #132, .T. ) ;
#51 = FACE_OUTER_BOUND ( 'NONE', #69, .T. ) ;
#52 = CC_DESIGN_PERSON_AND_ORGANIZATION_ASSIGNMENT ( #95, #187, ( #115 ) ) ;
#53 = DIRECTION ( 'NONE',  ( -4.275831445896958607E-31, -1.000000000000000000, -1.224646799147353207E-16 ) ) ;
#54 = APPROVAL_STATUS ( 'not_yet_approved' ) ;
#55 = CARTESIAN_POINT ( 'NONE',  ( 1.047444401652940007E-13, 2.999519565323652267E-33, 30.00000000000000000 ) ) ;
#56 = FACE_OUTER_BOUND ( 'NONE', #103, .T. ) ;
#57 = CC_DESIGN_PERSON_AND_ORGANIZATION_ASSIGNMENT ( #161, #221, ( #212 ) ) ;
#58 = CARTESIAN_POINT ( 'NONE',  ( 0.0000000000000000000, 0.0000000000000000000, 0.0000000000000000000 ) ) ;
#59 = AXIS2_PLACEMENT_3D ( 'NONE', #191, #189, #99 ) ;
#60 = AXIS2_PLACEMENT_3D ( 'NONE', #58, #108, #127 ) ;
#61 = VERTEX_POINT ( 'NONE', #184 ) ;
#62 = DATE_AND_TIME ( #219, #91 ) ;
#63 = CARTESIAN_POINT ( 'NONE',  ( 5.244734096451165231E-16, -1.839605084564502990E-17, 0.1502151547568905399 ) ) ;
#64 = EDGE_CURVE ( 'NONE', #138, #138, #76, .T. ) ;
#65 = DIRECTION ( 'NONE',  ( 4.275831445896958607E-31, 1.000000000000000000, 1.224646799147353207E-16 ) ) ;
#66 = ORGANIZATION ( 'UNSPECIFIED', 'UNSPECIFIED', '' ) ;
#67 = DIRECTION ( 'NONE',  ( -3.491481338843133355E-15, 1.224646799147353207E-16, -1.000000000000000000 ) ) ;
#68 = DIRECTION ( 'NONE',  ( 3.851859888774501484E-31, 1.000000000000000000, 1.084202172485512816E-16 ) ) ;
#69 = EDGE_LOOP ( 'NONE', ( #106 ) ) ;
#70 = DIRECTION ( 'NONE',  ( 0.0000000000000000000, 1.000000000000000000, 0.0000000000000000000 ) ) ;
#71 = EDGE_LOOP ( 'NONE', ( #20 ) ) ;
#72 = CONICAL_SURFACE ( 'NONE', #174, 0.4999999999999961142, 0.2617993877991431906 ) ;
#73 = DIRECTION ( 'NONE',  ( 4.275831445896958607E-31, 1.000000000000000000, 1.224646799147353207E-16 ) ) ;
#74 = CC_DESIGN_PERSON_AND_ORGANIZATION_ASSIGNMENT ( #125, #181, ( #40 ) ) ;
#75 = LOCAL_TIME ( 7, 14, 19.00000000000000000, #182 ) ;
#76 = CIRCLE ( 'NONE', #185, 0.2499999999999984457 ) ;
#77 = ADVANCED_FACE ( 'NONE', ( #26 ), #100, .F. ) ;
#78 = DIRECTION ( 'NONE',  ( -3.851859888774501484E-31, -1.000000000000000000, -1.084202172485512816E-16 ) ) ;
#79 = CLOSED_SHELL ( 'NONE', ( #77, #113, #220, #148, #47 ) ) ;
#80 = APPROVAL_DATE_TIME ( #62, #186 ) ;
#81 = FACE_OUTER_BOUND ( 'NONE', #177, .T. ) ;
#82 = CARTESIAN_POINT ( 'NONE',  ( 1.396592535537253342E-14, -4.898587196589412829E-16, 4.000000000000000000 ) ) ;
#83 = CARTESIAN_POINT ( 'NONE',  ( 1.722352179293288066E-14, -6.041198215525560393E-16, 4.933012701892233842 ) ) ;
#84 =( NAMED_UNIT ( * ) SI_UNIT ( $, .STERADIAN. ) SOLID_ANGLE_UNIT ( ) );
#85 = CC_DESIGN_APPROVAL ( #86, ( #165 ) ) ;
#86 = APPROVAL ( #214, 'UNSPECIFIED' ) ;
#87 = PRODUCT_DEFINITION_SHAPE ( 'NONE', 'NONE',  #165 ) ;
#88 = CLOSED_SHELL ( 'NONE', ( #94, #203, #217 ) ) ;
#89 = APPROVAL_ROLE ( '' ) ;
#90 = CARTESIAN_POINT ( 'NONE',  ( 5.244734096451166217E-16, 0.2499999999999980571, 0.1502151547568905676 ) ) ;
#91 = LOCAL_TIME ( 7, 14, 19.00000000000000000, #28 ) ;
#92 = EDGE_CURVE ( 'NONE', #176, #176, #145, .T. ) ;
#93 = CARTESIAN_POINT ( 'NONE',  ( 1.396592535537253342E-14, 0.2499999999999979461, 4.000000000000000000 ) ) ;
#94 = ADVANCED_FACE ( 'NONE', ( #34 ), #168, .T. ) ;
#95 = PERSON_AND_ORGANIZATION ( #193, #66 ) ;
#96 = DIRECTION ( 'NONE',  ( 0.0000000000000000000, 1.000000000000000000, 0.0000000000000000000 ) ) ;
#97 = PERSON_AND_ORGANIZATION ( #193, #66 ) ;
#98 = CARTESIAN_POINT ( 'NONE',  ( 1.043952920314096936E-13, -3.661693929450586610E-15, 29.90000000000000213 ) ) ;
#99 = DIRECTION ( 'NONE',  ( -4.275831445896958607E-31, -1.000000000000000000, -1.224646799147353207E-16 ) ) ;
#100 = PLANE ( 'NONE',  #222 ) ;
#101 = AXIS2_PLACEMENT_3D ( 'NONE', #211, #155, #65 ) ;
#102 = LOCAL_TIME ( 7, 14, 19.00000000000000000, #123 ) ;
#103 = EDGE_LOOP ( 'NONE', ( #194 ) ) ;
#104 = ORIENTED_EDGE ( 'NONE', *, *, #43, .F. ) ;
#105 = APPROVAL_STATUS ( 'not_yet_approved' ) ;
#106 = ORIENTED_EDGE ( 'NONE', *, *, #64, .T. ) ;
#107 = CC_DESIGN_PERSON_AND_ORGANIZATION_ASSIGNMENT ( #97, #157, ( #115 ) ) ;
#108 = DIRECTION ( 'NONE',  ( 0.0000000000000000000, 0.0000000000000000000, 1.000000000000000000 ) ) ;
#109 = DIRECTION ( 'NONE',  ( 0.0000000000000000000, 1.000000000000000000, 0.0000000000000000000 ) ) ;
#110 = APPROVAL_ROLE ( '' ) ;
#111 = APPROVAL ( #105, 'UNSPECIFIED' ) ;
#112 = CIRCLE ( 'NONE', #204, 0.2499999999999980571 ) ;
#113 = ADVANCED_FACE ( 'NONE', ( #6, #81 ), #72, .T. ) ;
#114 = AXIS2_PLACEMENT_3D ( 'NONE', #22, #67, #136 ) ;
#115 = PRODUCT_DEFINITION_FORMATION_WITH_SPECIFIED_SOURCE ( 'ANY', '', #40, .NOT_KNOWN. ) ;
#116 = CARTESIAN_POINT ( 'NONE',  ( 1.722352179293288066E-14, 0.4999999999999954481, 4.933012701892233842 ) ) ;
#117 = EDGE_LOOP ( 'NONE', ( #36 ) ) ;
#118 = DIRECTION ( 'NONE',  ( 0.0000000000000000000, 1.000000000000000000, 0.0000000000000000000 ) ) ;
#119 = FACE_OUTER_BOUND ( 'NONE', #178, .T. ) ;
#120 = PERSON_AND_ORGANIZATION_ROLE ( 'creator' ) ;
#121 = COORDINATED_UNIVERSAL_TIME_OFFSET ( 1, 0, .AHEAD. ) ;
#122 = DIRECTION ( 'NONE',  ( -3.491481338843133355E-15, 1.224646799147353207E-16, -1.000000000000000000 ) ) ;
#123 = COORDINATED_UNIVERSAL_TIME_OFFSET ( 1, 0, .AHEAD. ) ;
#124 = CARTESIAN_POINT ( 'NONE',  ( 1.396592535537253342E-14, -4.898587196589412829E-16, 4.000000000000000000 ) ) ;
#125 = PERSON_AND_ORGANIZATION ( #193, #66 ) ;
#126 = CIRCLE ( 'NONE', #31, 0.4999999999999961142 ) ;
#127 = DIRECTION ( 'NONE',  ( 1.000000000000000000, 0.0000000000000000000, 0.0000000000000000000 ) ) ;
#128 = CALENDAR_DATE ( 2021, 8, 10 ) ;
#129 = DATE_AND_TIME ( #146, #30 ) ;
#130 = CIRCLE ( 'NONE', #172, 0.3999999999999989675 ) ;
#131 =( GEOMETRIC_REPRESENTATION_CONTEXT ( 3 ) GLOBAL_UNCERTAINTY_ASSIGNED_CONTEXT ( ( #14 ) ) GLOBAL_UNIT_ASSIGNED_CONTEXT ( ( #202, #162, #84 ) ) REPRESENTATION_CONTEXT ( 'NONE', 'WORKASPACE' ) );
#132 = EDGE_CURVE ( 'NONE', #61, #61, #218, .T. ) ;
#133 = VERTEX_POINT ( 'NONE', #90 ) ;
#134 = DIRECTION ( 'NONE',  ( 0.0000000000000000000, -1.000000000000000000, 0.0000000000000000000 ) ) ;
#135 = FACE_OUTER_BOUND ( 'NONE', #190, .T. ) ;
#136 = DIRECTION ( 'NONE',  ( 4.275831445896958607E-31, 1.000000000000000000, 1.224646799147353207E-16 ) ) ;
#137 = ORIENTED_EDGE ( 'NONE', *, *, #183, .T. ) ;
#138 = VERTEX_POINT ( 'NONE', #210 ) ;
#139 = FACE_BOUND ( 'NONE', #198, .T. ) ;
#140 = AXIS2_PLACEMENT_3D ( 'NONE', #55, #122, #73 ) ;
#141 = DIRECTION ( 'NONE',  ( 0.0000000000000000000, 1.000000000000000000, 0.0000000000000000000 ) ) ;
#142 = APPROVAL_ROLE ( '' ) ;
#143 = SECURITY_CLASSIFICATION_LEVEL ( 'unclassified' ) ;
#144 = PERSON_AND_ORGANIZATION ( #193, #66 ) ;
#145 = CIRCLE ( 'NONE', #156, 0.2499999999999984457 ) ;
#146 = CALENDAR_DATE ( 2021, 8, 10 ) ;
#147 = DATE_AND_TIME ( #201, #15 ) ;
#148 = ADVANCED_FACE ( 'NONE', ( #4, #139 ), #8, .T. ) ;
#149 = DESIGN_CONTEXT ( 'detailed design', #206, 'design' ) ;
#150 = CC_DESIGN_APPROVAL ( #111, ( #212 ) ) ;
#151 = VERTEX_POINT ( 'NONE', #223 ) ;
#152 = CC_DESIGN_APPROVAL ( #186, ( #115 ) ) ;
#153 = CARTESIAN_POINT ( 'NONE',  ( 1.047444401652940007E-13, -3.673940397442059178E-15, 30.00000000000000000 ) ) ;
#154 = EDGE_CURVE ( 'NONE', #133, #133, #112, .T. ) ;
#155 = DIRECTION ( 'NONE',  ( -3.491481338843133355E-15, 1.224646799147353207E-16, -1.000000000000000000 ) ) ;
#156 = AXIS2_PLACEMENT_3D ( 'NONE', #82, #170, #171 ) ;
#157 = PERSON_AND_ORGANIZATION_ROLE ( 'design_supplier' ) ;
#158 = DIRECTION ( 'NONE',  ( 3.491481338843133355E-15, -1.224646799147353207E-16, 1.000000000000000000 ) ) ;
#159 = DATE_TIME_ROLE ( 'classification_date' ) ;
#160 = ORIENTED_EDGE ( 'NONE', *, *, #92, .F. ) ;
#161 = PERSON_AND_ORGANIZATION ( #193, #66 ) ;
#162 =( NAMED_UNIT ( * ) PLANE_ANGLE_UNIT ( ) SI_UNIT ( $, .RADIAN. ) );
#163 = DATE_AND_TIME ( #215, #102 ) ;
#164 = PRODUCT_RELATED_PRODUCT_CATEGORY ( 'detail', '', ( #40 ) ) ;
#165 = PRODUCT_DEFINITION ( 'UNKNOWN', '', #115, #149 ) ;
#166 = APPLICATION_CONTEXT ( 'configuration controlled 3d designs of mechanical parts and assemblies' ) ;
#167 = APPROVAL_PERSON_ORGANIZATION ( #144, #186, #142 ) ;
#168 = CONICAL_SURFACE ( 'NONE', #44, 0.2499999999999980571, 1.029744258676649871 ) ;
#169 = CC_DESIGN_SECURITY_CLASSIFICATION ( #212, ( #115 ) ) ;
#170 = DIRECTION ( 'NONE',  ( -3.491481338843133355E-15, 1.224646799147353207E-16, -1.000000000000000000 ) ) ;
#171 = DIRECTION ( 'NONE',  ( 0.0000000000000000000, 1.000000000000000000, 0.0000000000000000000 ) ) ;
#172 = AXIS2_PLACEMENT_3D ( 'NONE', #1, #49, #118 ) ;
#173 = DIRECTION ( 'NONE',  ( 3.491481338843133355E-15, -1.224646799147353207E-16, 1.000000000000000000 ) ) ;
#174 = AXIS2_PLACEMENT_3D ( 'NONE', #188, #158, #134 ) ;
#175 = ORIENTED_EDGE ( 'NONE', *, *, #43, .T. ) ;
#176 = VERTEX_POINT ( 'NONE', #93 ) ;
#177 = EDGE_LOOP ( 'NONE', ( #175 ) ) ;
#178 = EDGE_LOOP ( 'NONE', ( #104 ) ) ;
#179 = PERSON_AND_ORGANIZATION ( #193, #66 ) ;
#180 = APPROVAL_DATE_TIME ( #129, #86 ) ;
#181 = PERSON_AND_ORGANIZATION_ROLE ( 'design_owner' ) ;
#182 = COORDINATED_UNIVERSAL_TIME_OFFSET ( 1, 0, .AHEAD. ) ;
#183 = EDGE_CURVE ( 'NONE', #151, #151, #130, .T. ) ;
#184 = CARTESIAN_POINT ( 'NONE',  ( 1.043952920314096936E-13, 0.4999999999999954481, 29.90000000000000213 ) ) ;
#185 = AXIS2_PLACEMENT_3D ( 'NONE', #124, #196, #109 ) ;
#186 = APPROVAL ( #54, 'UNSPECIFIED' ) ;
#187 = PERSON_AND_ORGANIZATION_ROLE ( 'creator' ) ;
#188 = CARTESIAN_POINT ( 'NONE',  ( 1.722352179293288066E-14, -6.041198215525560393E-16, 4.933012701892233842 ) ) ;
#189 = DIRECTION ( 'NONE',  ( 3.491481338843133355E-15, -1.224646799147353207E-16, 1.000000000000000000 ) ) ;
#190 = EDGE_LOOP ( 'NONE', ( #216 ) ) ;
#191 = CARTESIAN_POINT ( 'NONE',  ( 1.396592535537253342E-14, 1.874699728327302509E-33, 4.000000000000000000 ) ) ;
#192 = EDGE_LOOP ( 'NONE', ( #160 ) ) ;
#193 = PERSON ( 'UNSPECIFIED', 'UNSPECIFIED', 'UNSPECIFIED', ('UNSPECIFIED'), ('UNSPECIFIED'), ('UNSPECIFIED') ) ;
#194 = ORIENTED_EDGE ( 'NONE', *, *, #183, .F. ) ;
#195 = DATE_AND_TIME ( #128, #75 ) ;
#196 = DIRECTION ( 'NONE',  ( -3.491481338843133355E-15, 1.224646799147353207E-16, -1.000000000000000000 ) ) ;
#197 = CC_DESIGN_DATE_AND_TIME_ASSIGNMENT ( #147, #159, ( #212 ) ) ;
#198 = EDGE_LOOP ( 'NONE', ( #137 ) ) ;
#199 = APPLICATION_PROTOCOL_DEFINITION ( 'international standard', 'config_control_design', 1994, #166 ) ;
#200 = APPROVAL_DATE_TIME ( #195, #111 ) ;
#201 = CALENDAR_DATE ( 2021, 8, 10 ) ;
#202 =( LENGTH_UNIT ( ) NAMED_UNIT ( * ) SI_UNIT ( .MILLI., .METRE. ) );
#203 = ADVANCED_FACE ( 'NONE', ( #48, #51 ), #33, .T. ) ;
#204 = AXIS2_PLACEMENT_3D ( 'NONE', #207, #46, #68 ) ;
#205 = APPROVAL_PERSON_ORGANIZATION ( #179, #111, #89 ) ;
#206 = APPLICATION_CONTEXT ( 'configuration controlled 3d designs of mechanical parts and assemblies' ) ;
#207 = CARTESIAN_POINT ( 'NONE',  ( 5.244734096451165231E-16, -1.839605084564502990E-17, 0.1502151547568905399 ) ) ;
#208 = CARTESIAN_POINT ( 'NONE',  ( 1.396592535537253342E-14, 1.874699728327302509E-33, 4.000000000000000000 ) ) ;
#209 = VERTEX_POINT ( 'NONE', #116 ) ;
#210 = CARTESIAN_POINT ( 'NONE',  ( 1.396592535537253342E-14, 0.2499999999999979461, 4.000000000000000000 ) ) ;
#211 = CARTESIAN_POINT ( 'NONE',  ( 0.0000000000000000000, 0.0000000000000000000, 0.0000000000000000000 ) ) ;
#212 = SECURITY_CLASSIFICATION ( '', '', #143 ) ;
#213 = PLANE ( 'NONE',  #140 ) ;
#214 = APPROVAL_STATUS ( 'not_yet_approved' ) ;
#215 = CALENDAR_DATE ( 2021, 8, 10 ) ;
#216 = ORIENTED_EDGE ( 'NONE', *, *, #64, .F. ) ;
#217 = ADVANCED_FACE ( 'NONE', ( #135 ), #37, .T. ) ;
#218 = CIRCLE ( 'NONE', #39, 0.4999999999999991673 ) ;
#219 = CALENDAR_DATE ( 2021, 8, 10 ) ;
#220 = ADVANCED_FACE ( 'NONE', ( #119, #19 ), #2, .T. ) ;
#221 = PERSON_AND_ORGANIZATION_ROLE ( 'classification_officer' ) ;
#222 = AXIS2_PLACEMENT_3D ( 'NONE', #208, #21, #53 ) ;
#223 = CARTESIAN_POINT ( 'NONE',  ( 1.047444401652940007E-13, 0.3999999999999953038, 30.00000000000000000 ) ) ;
ENDSEC;
END-ISO-10303-21;
