ISO-10303-21;
HEADER;
FILE_DESCRIPTION (( 'STEP AP203' ),
    '1' );
FILE_NAME ('54986.step',
    '2021-10-08T08:11:26',
    ( '' ),
    ( '' ),
    'SwSTEP 2.0',
    'SolidWorks 2019',
    '' );
FILE_SCHEMA (( 'CONFIG_CONTROL_DESIGN' ));
ENDSEC;

DATA;
#1 = CARTESIAN_POINT ( 'NONE',  ( 0.0000000000000000000, 0.0000000000000000000, 0.0000000000000000000 ) ) ;
#2 = APPROVAL_ROLE ( '' ) ;
#3 = CIRCLE ( 'NONE', #93, 0.8249999999999989564 ) ;
#4 = CARTESIAN_POINT ( 'NONE',  ( 4.295607510381471416E-14, -1.506696292332195762E-15, 12.30310889132455365 ) ) ;
#5 = EDGE_CURVE ( 'NONE', #158, #158, #188, .T. ) ;
#6 = DATE_AND_TIME ( #48, #187 ) ;
#7 = ORIENTED_EDGE ( 'NONE', *, *, #5, .T. ) ;
#8 = CARTESIAN_POINT ( 'NONE',  ( 1.326762908760390423E-13, 5.999039130647368167E-33, 38.00000000000000000 ) ) ;
#9 = ORIENTED_EDGE ( 'NONE', *, *, #95, .T. ) ;
#10 = DIRECTION ( 'NONE',  ( 0.0000000000000000000, 1.000000000000000000, 0.0000000000000000000 ) ) ;
#11 = APPROVAL ( #106, 'UNSPECIFIED' ) ;
#12 = ORIENTED_EDGE ( 'NONE', *, *, #28, .T. ) ;
#13 = APPROVAL_DATE_TIME ( #47, #11 ) ;
#14 = PRODUCT_DEFINITION_FORMATION_WITH_SPECIFIED_SOURCE ( 'ANY', '', #82, .NOT_KNOWN. ) ;
#15 = AXIS2_PLACEMENT_3D ( 'NONE', #27, #200, #183 ) ;
#16 = COORDINATED_UNIVERSAL_TIME_OFFSET ( 1, 0, .AHEAD. ) ;
#17 = FACE_OUTER_BOUND ( 'NONE', #213, .T. ) ;
#18 = FACE_OUTER_BOUND ( 'NONE', #72, .T. ) ;
#19 = EDGE_CURVE ( 'NONE', #54, #54, #88, .T. ) ;
#20 = DIRECTION ( 'NONE',  ( -4.275831445896958607E-31, -1.000000000000000000, -1.224646799147353207E-16 ) ) ;
#21 = DATE_AND_TIME ( #176, #146 ) ;
#22 = PLANE ( 'NONE',  #105 ) ;
#23 = CARTESIAN_POINT ( 'NONE',  ( 0.0000000000000000000, 0.0000000000000000000, 0.0000000000000000000 ) ) ;
#24 = EDGE_LOOP ( 'NONE', ( #25 ) ) ;
#25 = ORIENTED_EDGE ( 'NONE', *, *, #73, .F. ) ;
#26 = CARTESIAN_POINT ( 'NONE',  ( 1.663041344952617913E-15, -5.833163812987045594E-17, 0.4763139720814459910 ) ) ;
#27 = CARTESIAN_POINT ( 'NONE',  ( 4.189777606611760026E-14, -1.469576158976823947E-15, 12.00000000000000000 ) ) ;
#28 = EDGE_CURVE ( 'NONE', #116, #116, #40, .T. ) ;
#29 = CALENDAR_DATE ( 2021, 8, 10 ) ;
#30 = AXIS2_PLACEMENT_3D ( 'NONE', #85, #214, #10 ) ;
#31 = PERSON_AND_ORGANIZATION ( #83, #204 ) ;
#32 = CARTESIAN_POINT ( 'NONE',  ( 4.189777606611760026E-14, 6.186509103480133895E-33, 12.00000000000000000 ) ) ;
#33 = FACE_BOUND ( 'NONE', #198, .T. ) ;
#34 = DIRECTION ( 'NONE',  ( 1.000000000000000000, 0.0000000000000000000, 0.0000000000000000000 ) ) ;
#35 = DIRECTION ( 'NONE',  ( -3.491481338843133355E-15, 1.224646799147353207E-16, -1.000000000000000000 ) ) ;
#36 = AXIS2_PLACEMENT_3D ( 'NONE', #209, #160, #20 ) ;
#37 = FACE_OUTER_BOUND ( 'NONE', #145, .T. ) ;
#38 = LOCAL_TIME ( 10, 11, 26.00000000000000000, #169 ) ;
#39 = ADVANCED_FACE ( 'NONE', ( #164, #33 ), #51, .T. ) ;
#40 = CIRCLE ( 'NONE', #15, 0.8249999999999991784 ) ;
#41 = ORIENTED_EDGE ( 'NONE', *, *, #73, .T. ) ;
#42 = DIRECTION ( 'NONE',  ( -3.491481338843133355E-15, 1.224646799147353207E-16, -1.000000000000000000 ) ) ;
#43 = DIRECTION ( 'NONE',  ( -3.491481338843133355E-15, 1.224646799147353207E-16, -1.000000000000000000 ) ) ;
#44 = CC_DESIGN_DATE_AND_TIME_ASSIGNMENT ( #6, #151, ( #150 ) ) ;
#45 = CALENDAR_DATE ( 2021, 8, 10 ) ;
#46 = CONICAL_SURFACE ( 'NONE', #193, 0.9999999999999978906, 0.5235987755982951519 ) ;
#47 = DATE_AND_TIME ( #29, #197 ) ;
#48 = CALENDAR_DATE ( 2021, 8, 10 ) ;
#49 = CC_DESIGN_DATE_AND_TIME_ASSIGNMENT ( #130, #149, ( #132 ) ) ;
#50 = PLANE ( 'NONE',  #36 ) ;
#51 = CONICAL_SURFACE ( 'NONE', #61, 0.8000000000000010436, 0.7853981633974504994 ) ;
#52 = APPLICATION_PROTOCOL_DEFINITION ( 'international standard', 'config_control_design', 1994, #189 ) ;
#53 = FACE_OUTER_BOUND ( 'NONE', #212, .T. ) ;
#54 = VERTEX_POINT ( 'NONE', #91 ) ;
#55 = ORIENTED_EDGE ( 'NONE', *, *, #19, .F. ) ;
#56 = ADVANCED_FACE ( 'NONE', ( #81 ), #138, .T. ) ;
#57 = APPROVAL_PERSON_ORGANIZATION ( #134, #205, #2 ) ;
#58 = AXIS2_PLACEMENT_3D ( 'NONE', #202, #43, #104 ) ;
#59 = DIRECTION ( 'NONE',  ( -3.491481338843133355E-15, 1.224646799147353207E-16, -1.000000000000000000 ) ) ;
#60 = ADVANCED_FACE ( 'NONE', ( #37, #53 ), #115, .T. ) ;
#61 = AXIS2_PLACEMENT_3D ( 'NONE', #129, #87, #221 ) ;
#62 = PERSON_AND_ORGANIZATION_ROLE ( 'design_supplier' ) ;
#63 = PERSON_AND_ORGANIZATION_ROLE ( 'classification_officer' ) ;
#64 = CC_DESIGN_PERSON_AND_ORGANIZATION_ASSIGNMENT ( #223, #62, ( #14 ) ) ;
#65 = PERSON_AND_ORGANIZATION ( #83, #204 ) ;
#66 = DIRECTION ( 'NONE',  ( -3.491481338843133355E-15, 1.224646799147353207E-16, -1.000000000000000000 ) ) ;
#67 = AXIS2_PLACEMENT_3D ( 'NONE', #97, #35, #94 ) ;
#68 = COORDINATED_UNIVERSAL_TIME_OFFSET ( 1, 0, .AHEAD. ) ;
#69 = CARTESIAN_POINT ( 'NONE',  ( 4.189777606611760026E-14, 0.8249999999999976241, 12.00000000000000000 ) ) ;
#70 = MANIFOLD_SOLID_BREP ( 'Corps-Déplacer/Copier1[2]', #75 ) ;
#71 = CIRCLE ( 'NONE', #30, 0.9999999999999978906 ) ;
#72 = EDGE_LOOP ( 'NONE', ( #41 ) ) ;
#73 = EDGE_CURVE ( 'NONE', #92, #92, #167, .T. ) ;
#74 = CC_DESIGN_APPROVAL ( #147, ( #14 ) ) ;
#75 = CLOSED_SHELL ( 'NONE', ( #56, #76, #191 ) ) ;
#76 = ADVANCED_FACE ( 'NONE', ( #175, #18 ), #195, .T. ) ;
#77 = VERTEX_POINT ( 'NONE', #153 ) ;
#78 = APPROVAL_DATE_TIME ( #21, #205 ) ;
#79 = FACE_BOUND ( 'NONE', #84, .T. ) ;
#80 = APPROVAL_PERSON_ORGANIZATION ( #89, #147, #222 ) ;
#81 = FACE_OUTER_BOUND ( 'NONE', #124, .T. ) ;
#82 = PRODUCT ( '54986', '54986', '', ( #206 ) ) ;
#83 = PERSON ( 'UNSPECIFIED', 'UNSPECIFIED', 'UNSPECIFIED', ('UNSPECIFIED'), ('UNSPECIFIED'), ('UNSPECIFIED') ) ;
#84 = EDGE_LOOP ( 'NONE', ( #182 ) ) ;
#85 = CARTESIAN_POINT ( 'NONE',  ( 4.295607510381471416E-14, -1.506696292332195762E-15, 12.30310889132455365 ) ) ;
#86 = EDGE_CURVE ( 'NONE', #211, #211, #3, .T. ) ;
#87 = DIRECTION ( 'NONE',  ( -3.491481338843133355E-15, 1.224646799147353207E-16, -1.000000000000000000 ) ) ;
#88 = CIRCLE ( 'NONE', #161, 0.8000000000000010436 ) ;
#89 = PERSON_AND_ORGANIZATION ( #83, #204 ) ;
#90 = PERSON_AND_ORGANIZATION_ROLE ( 'creator' ) ;
#91 = CARTESIAN_POINT ( 'NONE',  ( 1.326762908760390423E-13, 0.7999999999999963807, 38.00000000000000000 ) ) ;
#92 = VERTEX_POINT ( 'NONE', #179 ) ;
#93 = AXIS2_PLACEMENT_3D ( 'NONE', #26, #218, #126 ) ;
#94 = DIRECTION ( 'NONE',  ( 0.0000000000000000000, 1.000000000000000000, 0.0000000000000000000 ) ) ;
#95 = EDGE_CURVE ( 'NONE', #77, #77, #71, .T. ) ;
#96 = DIRECTION ( 'NONE',  ( 4.275831445896958607E-31, 1.000000000000000000, 1.224646799147353207E-16 ) ) ;
#97 = CARTESIAN_POINT ( 'NONE',  ( 4.189777606611760026E-14, -1.469576158976823947E-15, 12.00000000000000000 ) ) ;
#98 = CC_DESIGN_PERSON_AND_ORGANIZATION_ASSIGNMENT ( #152, #168, ( #14 ) ) ;
#99 = DIRECTION ( 'NONE',  ( 4.275831445896958607E-31, 1.000000000000000000, 1.224646799147352961E-16 ) ) ;
#100 = ORIENTED_EDGE ( 'NONE', *, *, #86, .F. ) ;
#101 = CC_DESIGN_APPROVAL ( #205, ( #150 ) ) ;
#102 = AXIS2_PLACEMENT_3D ( 'NONE', #133, #139, #141 ) ;
#103 = ORIENTED_EDGE ( 'NONE', *, *, #86, .T. ) ;
#104 = DIRECTION ( 'NONE',  ( 0.0000000000000000000, 1.000000000000000000, 0.0000000000000000000 ) ) ;
#105 = AXIS2_PLACEMENT_3D ( 'NONE', #32, #113, #143 ) ;
#106 = APPROVAL_STATUS ( 'not_yet_approved' ) ;
#107 = SHAPE_DEFINITION_REPRESENTATION ( #135, #199 ) ;
#108 = CC_DESIGN_SECURITY_CLASSIFICATION ( #132, ( #14 ) ) ;
#109 =( NAMED_UNIT ( * ) PLANE_ANGLE_UNIT ( ) SI_UNIT ( $, .RADIAN. ) );
#110 = DATE_AND_TIME ( #171, #136 ) ;
#111 = PERSON_AND_ORGANIZATION ( #83, #204 ) ;
#112 = DIRECTION ( 'NONE',  ( 0.0000000000000000000, 0.0000000000000000000, 1.000000000000000000 ) ) ;
#113 = DIRECTION ( 'NONE',  ( 3.491481338843133355E-15, -1.224646799147353207E-16, 1.000000000000000000 ) ) ;
#114 = ADVANCED_FACE ( 'NONE', ( #119 ), #163, .F. ) ;
#115 = CYLINDRICAL_SURFACE ( 'NONE', #174, 0.9999999999999991118 ) ;
#116 = VERTEX_POINT ( 'NONE', #69 ) ;
#117 = DIRECTION ( 'NONE',  ( 4.275831445896957731E-31, 1.000000000000000000, 1.224646799147353207E-16 ) ) ;
#118 = EDGE_LOOP ( 'NONE', ( #9 ) ) ;
#119 = FACE_OUTER_BOUND ( 'NONE', #144, .T. ) ;
#120 = ORIENTED_EDGE ( 'NONE', *, *, #5, .F. ) ;
#121 = EDGE_LOOP ( 'NONE', ( #100 ) ) ;
#122 = AXIS2_PLACEMENT_3D ( 'NONE', #23, #66, #99 ) ;
#123 = ADVANCED_FACE ( 'NONE', ( #17 ), #22, .F. ) ;
#124 = EDGE_LOOP ( 'NONE', ( #103 ) ) ;
#125 = DIRECTION ( 'NONE',  ( 0.0000000000000000000, 1.000000000000000000, 0.0000000000000000000 ) ) ;
#126 = DIRECTION ( 'NONE',  ( 4.668921077302395653E-31, 1.000000000000000000, 1.314184451497582738E-16 ) ) ;
#127 = CC_DESIGN_PERSON_AND_ORGANIZATION_ASSIGNMENT ( #220, #63, ( #132 ) ) ;
#128 = COORDINATED_UNIVERSAL_TIME_OFFSET ( 1, 0, .AHEAD. ) ;
#129 = CARTESIAN_POINT ( 'NONE',  ( 1.326762908760390423E-13, -4.653657836759941941E-15, 38.00000000000000000 ) ) ;
#130 = DATE_AND_TIME ( #45, #38 ) ;
#131 = SECURITY_CLASSIFICATION_LEVEL ( 'unclassified' ) ;
#132 = SECURITY_CLASSIFICATION ( '', '', #131 ) ;
#133 = CARTESIAN_POINT ( 'NONE',  ( 1.663041344952617913E-15, -5.833163812987045594E-17, 0.4763139720814459910 ) ) ;
#134 = PERSON_AND_ORGANIZATION ( #83, #204 ) ;
#135 = PRODUCT_DEFINITION_SHAPE ( 'NONE', 'NONE',  #150 ) ;
#136 = LOCAL_TIME ( 10, 11, 26.00000000000000000, #128 ) ;
#137 = DIRECTION ( 'NONE',  ( 3.491481338843133355E-15, -1.224646799147353207E-16, 1.000000000000000000 ) ) ;
#138 = CONICAL_SURFACE ( 'NONE', #102, 0.8249999999999989564, 1.047197551196592746 ) ;
#139 = DIRECTION ( 'NONE',  ( 3.491481338843133355E-15, -1.224646799147353207E-16, 1.000000000000000000 ) ) ;
#140 = CARTESIAN_POINT ( 'NONE',  ( 1.319779946082704535E-13, 0.9999999999999961142, 37.79999999999999716 ) ) ;
#141 = DIRECTION ( 'NONE',  ( -4.668921077302395653E-31, -1.000000000000000000, -1.314184451497582738E-16 ) ) ;
#142 = CC_DESIGN_PERSON_AND_ORGANIZATION_ASSIGNMENT ( #111, #90, ( #150 ) ) ;
#143 = DIRECTION ( 'NONE',  ( -4.275831445896958607E-31, -1.000000000000000000, -1.224646799147353207E-16 ) ) ;
#144 = EDGE_LOOP ( 'NONE', ( #55 ) ) ;
#145 = EDGE_LOOP ( 'NONE', ( #201 ) ) ;
#146 = LOCAL_TIME ( 10, 11, 26.00000000000000000, #68 ) ;
#147 = APPROVAL ( #203, 'UNSPECIFIED' ) ;
#148 = APPROVAL_DATE_TIME ( #110, #147 ) ;
#149 = DATE_TIME_ROLE ( 'classification_date' ) ;
#150 = PRODUCT_DEFINITION ( 'UNKNOWN', '', #14, #170 ) ;
#151 = DATE_TIME_ROLE ( 'creation_date' ) ;
#152 = PERSON_AND_ORGANIZATION ( #83, #204 ) ;
#153 = CARTESIAN_POINT ( 'NONE',  ( 4.295607510381471416E-14, 0.9999999999999963363, 12.30310889132455365 ) ) ;
#154 = APPLICATION_PROTOCOL_DEFINITION ( 'international standard', 'config_control_design', 1994, #180 ) ;
#155 = PERSON_AND_ORGANIZATION_ROLE ( 'design_owner' ) ;
#156 = FACE_OUTER_BOUND ( 'NONE', #118, .T. ) ;
#157 = APPROVAL_STATUS ( 'not_yet_approved' ) ;
#158 = VERTEX_POINT ( 'NONE', #140 ) ;
#159 = AXIS2_PLACEMENT_3D ( 'NONE', #8, #42, #96 ) ;
#160 = DIRECTION ( 'NONE',  ( 3.491481338843133355E-15, -1.224646799147353207E-16, 1.000000000000000000 ) ) ;
#161 = AXIS2_PLACEMENT_3D ( 'NONE', #185, #59, #125 ) ;
#162 = ORIENTED_EDGE ( 'NONE', *, *, #19, .T. ) ;
#163 = PLANE ( 'NONE',  #159 ) ;
#164 = FACE_OUTER_BOUND ( 'NONE', #184, .T. ) ;
#165 = UNCERTAINTY_MEASURE_WITH_UNIT (LENGTH_MEASURE( 1.000000000000000082E-05 ), #207, 'distance_accuracy_value', 'NONE');
#166 = APPROVAL_ROLE ( '' ) ;
#167 = CIRCLE ( 'NONE', #67, 0.8249999999999991784 ) ;
#168 = PERSON_AND_ORGANIZATION_ROLE ( 'creator' ) ;
#169 = COORDINATED_UNIVERSAL_TIME_OFFSET ( 1, 0, .AHEAD. ) ;
#170 = DESIGN_CONTEXT ( 'detailed design', #189, 'design' ) ;
#171 = CALENDAR_DATE ( 2021, 8, 10 ) ;
#172 = CARTESIAN_POINT ( 'NONE',  ( 1.663041344952618308E-15, 0.8249999999999988454, 0.4763139720814461020 ) ) ;
#173 = CC_DESIGN_APPROVAL ( #11, ( #132 ) ) ;
#174 = AXIS2_PLACEMENT_3D ( 'NONE', #208, #192, #117 ) ;
#175 = FACE_OUTER_BOUND ( 'NONE', #121, .T. ) ;
#176 = CALENDAR_DATE ( 2021, 8, 10 ) ;
#177 = DIRECTION ( 'NONE',  ( 0.0000000000000000000, -1.000000000000000000, 0.0000000000000000000 ) ) ;
#178 =( GEOMETRIC_REPRESENTATION_CONTEXT ( 3 ) GLOBAL_UNCERTAINTY_ASSIGNED_CONTEXT ( ( #165 ) ) GLOBAL_UNIT_ASSIGNED_CONTEXT ( ( #207, #109, #190 ) ) REPRESENTATION_CONTEXT ( 'NONE', 'WORKASPACE' ) );
#179 = CARTESIAN_POINT ( 'NONE',  ( 4.189777606611760026E-14, 0.8249999999999976241, 12.00000000000000000 ) ) ;
#180 = APPLICATION_CONTEXT ( 'configuration controlled 3d designs of mechanical parts and assemblies' ) ;
#181 = CC_DESIGN_PERSON_AND_ORGANIZATION_ASSIGNMENT ( #65, #155, ( #82 ) ) ;
#182 = ORIENTED_EDGE ( 'NONE', *, *, #28, .F. ) ;
#183 = DIRECTION ( 'NONE',  ( 0.0000000000000000000, 1.000000000000000000, 0.0000000000000000000 ) ) ;
#184 = EDGE_LOOP ( 'NONE', ( #120 ) ) ;
#185 = CARTESIAN_POINT ( 'NONE',  ( 1.326762908760390423E-13, -4.653657836759941941E-15, 38.00000000000000000 ) ) ;
#186 = COORDINATED_UNIVERSAL_TIME_OFFSET ( 1, 0, .AHEAD. ) ;
#187 = LOCAL_TIME ( 10, 11, 26.00000000000000000, #16 ) ;
#188 = CIRCLE ( 'NONE', #58, 1.000000000000000666 ) ;
#189 = APPLICATION_CONTEXT ( 'configuration controlled 3d designs of mechanical parts and assemblies' ) ;
#190 =( NAMED_UNIT ( * ) SI_UNIT ( $, .STERADIAN. ) SOLID_ANGLE_UNIT ( ) );
#191 = ADVANCED_FACE ( 'NONE', ( #194 ), #50, .T. ) ;
#192 = DIRECTION ( 'NONE',  ( -3.491481338843133355E-15, 1.224646799147353207E-16, -1.000000000000000000 ) ) ;
#193 = AXIS2_PLACEMENT_3D ( 'NONE', #4, #137, #177 ) ;
#194 = FACE_OUTER_BOUND ( 'NONE', #24, .T. ) ;
#195 = CYLINDRICAL_SURFACE ( 'NONE', #122, 0.8249999999999990674 ) ;
#196 = ADVANCED_FACE ( 'NONE', ( #79, #156 ), #46, .T. ) ;
#197 = LOCAL_TIME ( 10, 11, 26.00000000000000000, #186 ) ;
#198 = EDGE_LOOP ( 'NONE', ( #162 ) ) ;
#199 = ADVANCED_BREP_SHAPE_REPRESENTATION ( '54986', ( #217, #70, #219 ), #178 ) ;
#200 = DIRECTION ( 'NONE',  ( -3.491481338843133355E-15, 1.224646799147353207E-16, -1.000000000000000000 ) ) ;
#201 = ORIENTED_EDGE ( 'NONE', *, *, #95, .F. ) ;
#202 = CARTESIAN_POINT ( 'NONE',  ( 1.319779946082704535E-13, -4.629164900776995227E-15, 37.79999999999999716 ) ) ;
#203 = APPROVAL_STATUS ( 'not_yet_approved' ) ;
#204 = ORGANIZATION ( 'UNSPECIFIED', 'UNSPECIFIED', '' ) ;
#205 = APPROVAL ( #157, 'UNSPECIFIED' ) ;
#206 = MECHANICAL_CONTEXT ( 'NONE', #180, 'mechanical' ) ;
#207 =( LENGTH_UNIT ( ) NAMED_UNIT ( * ) SI_UNIT ( .MILLI., .METRE. ) );
#208 = CARTESIAN_POINT ( 'NONE',  ( 0.0000000000000000000, 0.0000000000000000000, 0.0000000000000000000 ) ) ;
#209 = CARTESIAN_POINT ( 'NONE',  ( 4.189777606611760026E-14, 6.186509103480133895E-33, 12.00000000000000000 ) ) ;
#210 = CLOSED_SHELL ( 'NONE', ( #123, #196, #60, #39, #114 ) ) ;
#211 = VERTEX_POINT ( 'NONE', #172 ) ;
#212 = EDGE_LOOP ( 'NONE', ( #7 ) ) ;
#213 = EDGE_LOOP ( 'NONE', ( #12 ) ) ;
#214 = DIRECTION ( 'NONE',  ( -3.491481338843133355E-15, 1.224646799147353207E-16, -1.000000000000000000 ) ) ;
#215 = PRODUCT_RELATED_PRODUCT_CATEGORY ( 'detail', '', ( #82 ) ) ;
#216 = APPROVAL_PERSON_ORGANIZATION ( #31, #11, #166 ) ;
#217 = MANIFOLD_SOLID_BREP ( 'Corps-Déplacer/Copier1[1]', #210 ) ;
#218 = DIRECTION ( 'NONE',  ( -3.491481338843133355E-15, 1.224646799147353207E-16, -1.000000000000000000 ) ) ;
#219 = AXIS2_PLACEMENT_3D ( 'NONE', #1, #112, #34 ) ;
#220 = PERSON_AND_ORGANIZATION ( #83, #204 ) ;
#221 = DIRECTION ( 'NONE',  ( 0.0000000000000000000, 1.000000000000000000, 0.0000000000000000000 ) ) ;
#222 = APPROVAL_ROLE ( '' ) ;
#223 = PERSON_AND_ORGANIZATION ( #83, #204 ) ;
ENDSEC;
END-ISO-10303-21;
